PrimaNota.ru - самый крупный в мире бесплатный архив песенных текстов, аккордов, табулатур и нот


Леннон Джон - Every Man Has A Woman Who Loves Him - аккорды и текст, видео

Регистрация Запомнить меня
Войти через:  Facebook Google Twitter Vk Yandex Mail.ru

Леннон Джон - Every Man Has A Woman Who Loves Him - аккорды и текст, видео

Печатать
Просмотров: 247
Авторы музыки: Yoko Ono
Авторы текста: Yoko Ono
Every Man Has A Woman Who Loves Him
Леннон Джон
---------------------------------------------------------------------------
                Every Man Has a Woman Who Loves Him - John Lennon
---------------------------------------------------------------------------
Tabbed by: maguri
Tuning: Standard

John Lennon
Every Man Has a Woman Who Loves Him (recorded 1980)
(Yoko Ono)

From: "Every Man Has a Woman Who Loves Him" (1984)
Now a bonus track on: "Milk and Honey"

---------------------------------------------------------------------------

SOLO

 |       Em       |        %       |      Am        |       %        |

e|----7-6-7-------|5---------------|----------------|----------------|
B|----------8-5-8-|--8-8-7-7-5-5-7-|----7-8-4-5-----|--------4-5-7-8-|
G|----------------|----------------|----------------|4-5-------------|
D|----------------|----------------|----------------|----------------|
A|----------------|----------------|----------------|----------------|
E|SAX/MARIMBA-----|----------------|----------------|----------------|

e|----------------|----------------|----------------|----------------|
B|----------------|----------------|----------------|----------------|
G|----------------|----------------|----------------|----------------|
D|----------------|----------------|6-7-------------|----4-5---------|
A|----------------|----------------|------------6-7-|----------------|
E|GUITAR----------|----------------|----------------|------------6-7-|

---------------------------------------------------------------------------

INTRO
| Em | % | Am |% |

Em              Am
Every man has a woman who loves him
   Em               Am      Em          Am
In rain or shine or life or death
Em                 Am
If he finds her in this life time
        Em           Am                     Em          Am
He will know when he presses his ear to her breast

Em                   Am    
Why do I roam when I know you're the one
Em                    Am    
Why do I laugh when I feel like crying


SOLO
| Em | % | Am | % | Em | % | Am |% |


Em                Am
Every woman has a man who loves her
Em                  Am       Em          Am
Rise or fall of her life and death
Em                  Am
If she finds him in this life time
         Em            Am             Em          Am
She will know when she looks into his eyes

Em                   Am    
Why do I roam when I know you're the one
Em                  Am                Em          Am
Why do I run when I feel like holding you

Em              Am
Every man has a woman who loves him
Em                 Am
If he finds her in this life time
        Em           Am
He will know ...


SOLO
| Em | % | Am | % | Em | % | Am |% |

(repeat and fade)

Добавлено: 12.06.2013
Другие материалы по этой песне:
  • Аккорды и текст

Страница создана 03.03.2012
http://primanota.ru/john-lennon/every-man-has-a-woman-who-loves-him-chords.htm
Привет, Гость.
Предлагаем пройти революционный курс по гитаре.
Подарок от PrimaNota.Ru, забирай!