PrimaNota.ru - самый крупный в мире бесплатный архив песенных текстов, аккордов, табулатур и нот


Леннон Джон - 9 Dream - аккорды и текст, таба, бас-таба, видео

Регистрация Запомнить меня
Войти через:  Facebook Google Twitter Vk Yandex Mail.ru

Леннон Джон - 9 Dream - аккорды и текст, таба, бас-таба, видео

Печатать
Просмотров: 470
Уроки эстрадного вокала в Санкт-Петербурге
Авторы музыки: John Lennon
Авторы текста: John Lennon
9 Dream
Леннон Джон
---------------------------------------------------------------------------
                #9 Dream - John Lennon
---------------------------------------------------------------------------
Tabbed by: maguri
Tuning: Standard

John Lennon
#9 Dream (1974)
(Lennon)
From: "Walls and Bridges" and numerous Greatest Hits collections

One of Lennon's sweetest tunes. Large parts of the composition and the 
production sound very much like Harrison - from the slide guitar intro 
to the chord pattern in the chorus and outro recalling "My Sweet Lord".

---------------------------------------------------------------------------

INTERLUDE (at the end of chorus 1 and 2)

  D/F#    D/E      D       D/C      G/B     G7/A     G6      G/F
 [guitar]
e|----------------|------2-------5-|--------------3-|------7-------10|
B|--------------3-|----3-------3---|------3-----3---|----8-------8---|
G|------2-----2---|--2-------2-----|----4-----4-----|--7-------7-----|
D|----4-----4-----|----------------|--5-----3-------|--------0-------|
A|--5-------------|----------------|----------------|7---------------|
E|----------------|----------------|----------------|----------------|
 [bass guitar]
G|----------------|----------------|----------------|----------------|
D|4-------2-------|----------------|----------------|----------------|
A|----------------|5-------3-------|2---------------|----------------|
E|----------------|----------------|--------5-------|3-------1-------|


If you're playing alone and can't separate arpeggio and bass line 
use these voicings:

      E-A-D-G-B-e
D/F#  x-x-4-2-3-2
D/E   x-x-2-2-3-2
D     x-x-0-2-3-2
D/C   x-3-x-2-3-2
G/B   x-2-0-0-0-3
G7/A  x-0-3-0-0-3
G6    3-x-2-0-0-3
G/F   1-x-0-0-0-x

---------------------------------------------------------------------------

INTRO 
| C | Em | F | E | 
| F | D | F | G |


VERSE
C  Em      F      E
So-oh long ago
            F     D     
Was it in a dream,        
F            G
  Was it just a dream?
     C    Em        F      E
I-hi know-oh, yes I know
          F         D      
Seemed so very real,         
F              G
  It seemed so real to me 


BRIDGE
                     G
Took a walk down the street
                           G
Through the heat whispered trees
                  Em7   A  Em7   A  Em7   A   Em7   A  
I thought I could hear,    hear,    hear,     hear)
Em7                    A    Em7                A  
  Somebody call out my name    as it started to rain 
Em7                     A  
   Two spirits dancing so strange 


CHORUS
Gm        C                 Gm
  Ah! bowakawa pousse, pousse
        C                 Gm
Ah! bowakawa pousse, pousse
        C               D/F#
Ah! bowakawa pousse, pousse 


INTERLUDE
| D/F# D/E | D D/C | G/B G7/A | G6 G/F | G/F |


VERSE
C  Em         F      E
Dream, dream away
             F     D 
Magic in the air,          
F             G
  Was magic in the air?
    C Em           F       E
I believe, yes I believe
              F     D
More I cannot say,           
F           G
  What more can I say? 


BRIDGE
              G
On a river of sound
                      G
Through the mirror go round, round
                  Em7   A  Em7   A  Em7   A   Em7   A  
I thought I could feel,    feel,    feel,     feel
Em7                A     Em7                     A  
 Music touching my soul,  something warm, sudden cold
Em7                    A   
The spirit dance was unfolding 


CHORUS
Gm        C                 Gm
  Ah! bowakawa pousse, pousse
        C                 Gm
Ah! bowakawa pousse, pousse
        C               D/F#
Ah! bowakawa pousse, pousse 


INTERLUDE
| D/F# D/E | D D/C | G/B G7/A | G6 G/F | G/F |


CHORUS / CODA 
Gm        C                 Gm
  Ah! bowakawa pousse, pousse
        C                 Gm
Ah! bowakawa pousse, pousse
        C                 Gm
Ah! bowakawa pousse, pousse
        C                 Gm
Ah! bowakawa pousse, pousse

(repeat and fade)
Добавлено: 29.06.2015
Другие материалы по этой песне:

Страница создана 12.03.2012
http://primanota.ru/john-lennon/9-dream-chords.htm
Привет, Гость.
Предлагаем пройти революционный курс по гитаре.
Подарок от PrimaNota.Ru, забирай!