PrimaNota.ru - самый крупный в мире бесплатный архив песенных текстов, аккордов, табулатур и нот


John Lee Hooker - Tupelo - таба, видео

Регистрация Запомнить меня
Войти через:  Facebook Google Twitter Vk Yandex Mail.ru

John Lee Hooker - Tupelo - таба, видео

Печатать
Просмотров: 261
John Lee Hooker - Tupelo

Intro/Riff                         
|-----------------------|-------------------------|
|-----------------------|-------------------------|
|-----------------------|-------------------------|
|--------------------0--|----------------------0--|
|------3-----3----------|--0-3/5-5-5-5-5-3--------|
|--3/5---3/5---5-3-0----|------------------5-3----|

Fills
|--3p0--------------|--------3p0----------------|
|------3p0h3h0p3h0--|--0-3-0-----0-3p0h3p0h3p0--|
|-------------------|---------------------------|
|-------------------|---------------------------|
|-------------------|---------------------------|
|-------------------|---------------------------|
Добавлено: 25.06.2012
Другие материалы по этой песне:

Страница создана 25.03.2012
http://primanota.ru/john-lee-hooker/tupelo-chords.htm
Привет, Гость.
Предлагаем пройти революционный курс по гитаре.
Подарок от PrimaNota.Ru, забирай!