PrimaNota.ru - самый крупный в мире бесплатный архив песенных текстов, аккордов, табулатур и нот


John Lee Hooker - Cryin All Night - таба, видео

Регистрация Запомнить меня
Войти через:  Facebook Google Twitter Vk Yandex Mail.ru

John Lee Hooker - Cryin All Night - таба, видео

Печатать
Просмотров: 94
CRYIN' ALL NIGHT



                        INTRO

|---------------------------------------------------|
|---------------------------------------------------|
|-5(b)------------7(b9)-----------5(b)--------------|
|----------------------------------------------7-7--|
|----------------------------------------------7-7--|
|-5-------5-------5-------5-------5-------5---------|



                            RIFF 1

|---------------------------------------------------------|
|---------------------------------------------------------|
|-5(b)------------7(b9)---7(b9)---5(b)--------------------|
|-------------------------------------------7---7-7-------| X2
|-------------------------------------------7---7-7-------|
|-5-------5-------5-------5-------5-------5---------------|



                                   Yes I

|-------------------------------------------------|
|-------------------------------------------------|
|-5(b)--------------------------------------------|
|------------7----7-7--------7----7----7-7--------|
|------------7----7-7--------7----7----7-7--------|
|-5-----------------------------------------------|



  rolled and I rolled and I tried the whole night  long. Yes   I

|------------------------------------------------|-----------|
|------------------------------------------------|-----------|
|------------------------------------------------|-RIFF 1 x2-|
|-7----------------------------------------------|-----------|
|-7- strummed with loose rythm ------------------|-----------|
|-5----------------------------------------------|-----------|



  rolled and I rolled and I tried the whole night   long.  I woke

|-------------------------------------------------|-------------|
|-------------------------------------------------|-------------|
|-------------------------------------------------|-RIFF 1 x2---|
|-7-----------------------------------------------|-------------|
|-7- strummed with loose rythm -------------------|-------------|
|-5-----------------------------------------------|-------------|



  up this morning... didn't know right from

|-----------------------------------|
|-----------------------------------|
|-----------------------------------|
|-7---------------------------------|
|-7- strummed with loose rythm -----|
|-5---------------------------------|



  wrong.
                          RIFF 2
|------------------------------------------------------------------|
|-3/5-----8-------3/5-----8----------------------------------------|
|-0-------0-------0-------0-------7p5------------------------------|
|-0-------0-------0-------0---------------7---7-------7---7--------|
|-----------------------------------------7---7-------7---7--------|
|---------------------------------5--------------------------------|



        Lord I  told my baby 'for I left this town

|-------------|------------------------------------|
|-------------|------------------------------------|
|-RIFF 2 x1---|------------------------------------|
|-------------|-7----------------------------------|
|-------------|-7-- strummed loosely with rythm ---|
|-------------|-5----------------------------------|



        Lord I  told my baby 'for I left this    town

|-------------|--------------------------------|-------------|
|-------------|--------------------------------|-------------|
|-RIFF 1 x2---|--------------------------------|-RIFF 1 x1---|
|-------------|-7------------------------------|-------------|
|-------------|-7- strummed with loose rythm --|-------------|
|-------------|-5------------------------------|-------------|



Lord don't let nobody tear my bad house down.

         |------------------------------------|
         |------------------------------------|
         |------------------------------------|
         |-7----------------------------------|
         |-7- strummed with loose rythm ------|
         |-5----------------------------------|



       Lord I walked and I walked and I tried the whole day

|-----------|---------------------------------------------|
|-----------|---------------------------------------------|
|-----------|---------------------------------------------|
|-RIFF 2 x3-|-7-------------------------------------------|
|-----------|-7- strummed with loose rythm ---------------|
|-----------|-5-------------------------------------------|



 long.  Yes I walked and I walked and I cried the whole day down. I didn't

|-----------|---------------------------------------------|----------|
|-----------|---------------------------------------------|----------|
|-----------|---------------------------------------------|----------|
|-RIFF 2 x2-|-7-------------------------------------------|-RIFF 1 x3|
|-----------|-7- strummed with loose rythm ---------------|----------|
|-----------|-5-------------------------------------------|----------|



  have nobody tell my trouble  to                 yes a long time

|------------------------------------|-----------|
|------------------------------------|-----------|
|------------------------------------|-RIFF 2 x2-|
|-7----------------------------------|-----------|
|-7- strummed with loose rythm ------|-----------|
|-5----------------------------------|-----------|



     Angel 'n Heaven blow the whistle and now famine rung the

|-----------|---------------------------------------------|
|-----------|---------------------------------------------|
|-----------|---------------------------------------------|
|-RIFF 1 x4-|-7-------------------------------------------|
|-----------|-7- strummed with loose rythm ---------------|
|-----------|-5-------------------------------------------|



  bell

|----------------------------------------------------------|
|-3/5--8--3/5--8--3/5--8--3/5--8--3/5--8--3/5--8-----------|
|-0-------0-------0-------0-------0-------0-------7p5------|
|-0-------0-------0-------0-------0-------0------------7-7-|
|------------------------------------------------------7-7-|
|----------------------------------------------------------|



Boom,      boom,      boom boom,           boom, boom!

|--------------------------------------------------|
|-2----------------------------------2-----------2-|
|-2----------------------------------2-----------2-|
|-2----------------------------------2-----------2-|
|-0----------------------------------0-----------0-|
|--------------------------------------------------|
Добавлено: 11.09.2013
Другие материалы по этой песне:
  • Аккорды и текст

Страница создана 11.09.2013
http://primanota.ru/john-lee-hooker/cryin-all-night-chords.htm
Привет, Гость.
Предлагаем пройти революционный курс по гитаре.
Подарок от PrimaNota.Ru, забирай!