PrimaNota.ru - самый крупный в мире бесплатный архив песенных текстов, аккордов, табулатур и нот


John K Samson - Fellow Traveller - таба, видео

Регистрация Запомнить меня
Войти через:  Facebook Google Twitter Vk Yandex Mail.ru

John K Samson - Fellow Traveller - таба, видео

Печатать
Просмотров: 69
-------------------------------------------------------------------------------
                             John K. Samson - Fellow Traveller
-------------------------------------------------------------------------------
Tabbed by: digital_fate

Heard this song and just had to learn it.

https://www.youtube.com/watch?v=7vU-2XfGDKk

The tuning seems to be an Open F but with the 5th string (original A string)
also tuned to an F, so E-A-D-G-B-E becomes F-F-C-F-C-F.

Intro

F|--0--0--0--0--0--0-------0--0--0--0--0--0-----|
C|--5--5--7--9--9--9-------5--5--7--9--9--9-----|
F|--0--0--0--0--0--0-------0--0--0--0--0--0-----|
C|--5--5--7--9--9--9-------5--5--7--9--9--9-----|
F|--0--0--0--0--0--0-------0--0--0--0--0--0-----|
F|--0--0--0--0--0--0-------0--0--0--0--0--0-----|

F|-------------------------5--5--5--5--5--------|
C|-------------------------5--5--5--5--5--------|
F|-------------------------5--5--5--5--5--------|
C|--5--5--5--5--5--5-------5--5--5--5--5--------|
F|--2--2--2--2--2--2-------5--5--5--5--5--------|
F|--2--2--2--2--2--2-------5--5--5--5--5--------|


Verse
   Rain...              Rain...              Rain...              The streak...
   Sleep...             Sleep...             Sleep...             While I interrogate...
F|--------------------|--------------------|--------------------|------------------|
C|--------------------|--------------------|--------------------|------------------|
F|--------------------|--------------------|--------------------|------------------|
C|--9----9----7----5--|--9----9----7----5--|--5----5----9----7--|--5----5----9-----|
F|--7----9----7----5--|--7----9----7----5--|--2----5----7----7--|--2----5----7-----|
F|--0----9----7----5--|--0----9----7----5--|--2----5----0----7--|--2----5----0-----|

Chorus
   The aspidistra...    miniature camera...  To get that...       All in our file...
   I fall from...       lecture my...        But once I was...    My dear defected...
   Every umbrella...    opens and closes...  theory of....        A forgery for...
F|--------------------|--------------------|--------------------|------------------|
C|--------------------|--------------------|--------------------|------------------|
F|--------------------|--------------------|--------------------|------------------|
C|--2----4----9----5--|--2----4----9----5--|--5----7----9----5--|--5----7----------|
F|--5----7----7----5--|--5----7----7----5--|--5----7----7----5--|--5----7----------|
F|--5----7----0----5--|--5----7----0----5--|--5----7----0----5--|--5----7----------|


Bridge #1
  How you booked...     When they asked...
F|--------------------|--------------------|
C|--------------------|--------------------|
F|--------------------|--------------------|
C|--5----5----5----7--|--5----5----5-------|
F|--2----4----5----7--|--2----4----5-------|
F|--2----4----5----7--|--2----4----5-------|


Bridge #2
 ..fellow travellers...  I still believe...
F|--------------------|----------------------|
C|--------------------|----------------------|
F|--------------------|----------------------|
C|--5----5----5----7--|--5----5--------------|
F|--2----4----5----7--|--4----7--------------|
F|--2----4----5----7--|--4----7--------------|


Order as follows:

Intro
Verse
Chorus
Intro
Verse
Chorus
Intro
Bridge #1
Chorus
Bridge #2
Intro
Добавлено: 14.04.2016
Другие материалы по этой песне:
  • Аккорды и текст

Страница создана 14.04.2016
http://primanota.ru/john-k-samson/fellow-traveller-chords.htm
Привет, Гость.
Предлагаем пройти революционный курс по гитаре.
Подарок от PrimaNota.Ru, забирай!