PrimaNota.ru - самый крупный в мире бесплатный архив песенных текстов, аккордов, табулатур и нот


John Jorgenson - El Camino Del Che - таба, видео

Регистрация Запомнить меня
Войти через:  Facebook Google Twitter Vk Yandex Mail.ru

John Jorgenson - El Camino Del Che - таба, видео

Печатать
Просмотров: 100
                       <|-----------------------------|>
                      <<|-----"El-Camino-Del-Che"-----|>>
                     <<<|------by-John-Jorgenson------|>>>
                      <<|-from-The-Motorcycle-Diaries-|>>
                       <|-----------------------------|>

Transcribed by Sergio Sánchez

Gtr I - (E A D G B e) - Acoustic Guitar (steel)
Gtr II - (E A D G B e) - Acoustic Guitar (steel)

   Intro
    Q=240
   4/4
    Gtr II                            Main Theme
    
    Am    B7            Am            E7

    Gtr I
    E E E E E E E E  7x Q Q Q E E     E E E E E E E E   E E E E E E E E
||-------------------||-------0-1-||--0-1-0-----------|-----------------|
||--1-1-1-0----------||-1---------||--------3-1-0-----|-----------------|
||o-2-2-2-2---------o||-2---------||o-------------2-1-|-----------------|
||o-2-2-2-1---------o||-2---------||o-----------------|-3-2-0-------0-1-|
||--0-0-0-2----------||-0---------||------------------|-------3-2-3-----|
||------------0-0-0--||-----------||------------------|-----------------|

  Am                 E7                                  Am

  H +H     H Q E E   E E E E E E E E   E E E E E E E E   H   +H   Q E E
|--------|-----0-1-|-4-1-0-------7-4-|-0---------------|---|------------|
|--------|---------|-------3-1-0-----|---3-1-0-------0-|-1-|-(1)/---5-8-|
|--------|---------|-----------------|---------2-1-2---|---|------------|
|-2-(2)/-|---------|-----------------|-----------------|---|------------|
|--------|---------|-----------------|-----------------|---|------------|
|--------|---------|-----------------|-----------------|---|------------|

  Dm                            Am                           F7

  E E E E E E E E   +H  Q E E   E E E E E E E   +H  Q  E E   E E E E E E E E
|-------7---5-----|-----------|---------------|------------|---------------|
|-6-5-6-----------|---------6-|-5-----6---5---|-------/0-3-|-1-0---1-0---1-0
|---------------7-|-(7)---7---|---5-----------|------------|-----2-----2---|
|-----------------|-----------|-----7-------7-|-(7)--------|---------------|
|-----------------|-----------|---------------|------------|---------------|
|-----------------|-----------|---------------|------------|---------------|

  E7                  Am      B7  E7    Am            Am
                                       ____________  _____________________
                                      |1.           |2.
              |-3-|                                     |-3-| |-3-| |-3-|
  E E E E E E E E E   E E E E E E E E   Q Q Q E E     Q E E E E E E E E E
|-------------------|-----------------|-------0-1--||-----0-1-2-3-4-5-6-7-||
|-------------------|-----------------|------------||---4-----------------||
|-2-1---------------|-----------2-1-4-|-2---------o||-2-------------------||
|-----3-2-0---------|-----2-1-4-------|-----------o||---------------------||
|-----------3-2h3p2-|-0-3-------------|------------||---------------------||
|-------------------|-----------------|------------||---------------------||

    Bridge

    B7b9/E                            E7b9

    Q E E E E E E   E E E E E E E E   E E E E +Q  E S S   E E E E Q   E   E
||--8-8-5---8-5---|-8-5---8-5---8-5-|-8-7---7-(7)/5-7p5p==4-5-7-5-4/-(0)-(0)
||--------7-----7-|-----7-----7-----|-------------------|------------------|
||o---------------|-----------------|-------------------|------------------|
||o---------------|-----------------|-------------------|------------------|
||----------------|-----------------|-------------------|------------------|
||----------------|-----------------|-------------------|------------------|

  A7b9                              Dm

  Q E E E E E E   E E E E E E E E   E E E E E E E S S   E E E E Q  Q
|-6-6-3-0-6-3-0-|-6-3-0-6-3-0-6-0-|-6-5---5-----------|---------5/---|
|---------------|-----------------|-----------6-5h6p5-|---5-6-8------|
|---------------|-----------------|-------------------|-7------------|
|---------------|-----------------|-------------------|--------------|
|---------------|-----------------|-------------------|--------------|
|---------------|-----------------|-------------------|--------------|

Bb7                             A7

                                        |-3-|
  Q E E E E Q   E E E E Q Q   E E E E Q E E E   E E E E E E E E
|-4---------4-|---------4-4-|-4-3---3---3-2-1-|-0---------------|
|---------3---|-------3---3-|-3-2---2---------|---3-2-----------|
|---3-4-5-----|-3-4-5-----5-|-5-4---4---------|-------3-2-0-----|
|-------------|-------------|-----------------|-------------3-2-|
|-------------|-------------|-----------------|-----------------|
|-------------|-------------|-----------------|-----------------|

    B9            B7b9b5          E7(b5)
                                 _____________________________________
                                |1.
                                                    |-3-| |-3-| |-3-|
  Q E E +E  E Q   Q E E +E  E Q   E Q E +E  E Q   Q E E E E E E E E E
|---2-2-(2)-2-2-|-1-1-1-(1)-1-1-|-1-0-0-(0)-0---|-0---0-1-2-3-4-5-6-7--||
|---3-3-(3)-3-3-|-1-1-1-(1)-1-1-|-0-0-0-(0)-0---|-0-4------------------||
|---2-2-(2)-2-2-|-2-2-2-(2)-2-2-|-1-1-1-(1)-1---|-1-------------------o||
|-1-1-1-(1)-1-1-|-1-1-1-(1)-1-1-|-0-0-0-(0)-0---|-0-------------------o||
|---------------|---------------|---------------|----------------------||
|---------------|---------------|-------------0-|----------------------||

  E7(b9) E
 ____________________
|2.
         |-3-| |-3-|
  E Q E  E E E E E E   Q Q H
|-1-0-0--0-0-0-0-0-0-|-0-----||
|-0-0-0--0-0-0-0-0-0-|-0-----||
|-1-1-1--1-1-1-1-1-1-|-1-----||
|-0-0-0--2-2-2-2-2-2-|-2-----||
|--------2-2-2-2-2-2-|-2-----||
|--------0-0-0-0-0-0-|-0-----||
Добавлено: 19.06.2012
Другие материалы по этой песне:

Страница создана 07.05.2012
http://primanota.ru/john-jorgenson/el-camino-del-che-chords.htm
Привет, Гость.
Предлагаем пройти революционный курс по гитаре.
Подарок от PrimaNota.Ru, забирай!