PrimaNota.ru - самый крупный в мире бесплатный архив песенных текстов, аккордов, табулатур и нот


John Hughes - Calon Lan - таба, видео

Регистрация Запомнить меня
Войти через:  Facebook Google Twitter Vk Yandex Mail.ru

John Hughes - Calon Lan - таба, видео

Печатать
Просмотров: 89
-------------------------------------------------------------------------------
                             Calon Lan John Hughes
-------------------------------------------------------------------------------
Tabbed by: Simon Lewis
E-mail: simonlewis74@gmail.com

Tuning: Standard

Speed : check for timing https://www.youtube.com/watch?v=bY-SjHGwBgo

e|----------------------------------------------------------------|
B|----3-5/7-----5-7------0-2-3---0-8-7-7-5-----3-5/7-----5-7------|
G|---2--------7-----7-2-----------------------2--------7-----7-2--|
D|----------------------------------------------------------------|
A|----------------------------------------------------------------|
E|----------------------------------------------------------------|

e|-----------------------------------------------------------------------------|
B|---3-3-2-0---3-3-2-3---7---10--7-7--------5-7-8-7b-5-7--------------2--3--5--|
G|-----------2-------------7---------7-7-6----------------7--6--4--2-----------|
D|-----------------------------------------------------------------------------|
A|-----------------------------------------------------------------------------|
E|-----------------------------------------------------------------------------|

e|-------------------------------------------------0-2------------|
B|------7----------------------------------------3-----3-5-3-2-3--|
G|--7-9---7-9-7-6-7-----------------------------------------------|
D|----------------------------------------------------------------|
A|----------------------------------------------------------------|
E|--------------------10-12-14-10-12-10-9-10----------------------|

************************************

| /   slide up
| \   slide down
| h   hammer-on
| p   pull-off
| ~   vibrato
| +   harmonic
| x   Mute note
| b   Bend
| pb  Pre-bend
| br  Bend release
| pbr Pre-bend release
| brb Bend release bend

************************************
Добавлено: 08.06.2016
Другие материалы по этой песне:
  • Аккорды и текст

Страница создана 08.06.2016
http://primanota.ru/john-hughes/calon-lan-chords.htm
Привет, Гость.
Предлагаем пройти революционный курс по гитаре.
Подарок от PrimaNota.Ru, забирай!