PrimaNota.ru - самый крупный в мире бесплатный архив песенных текстов, аккордов, табулатур и нот


John H Yates - Faith Is The Victory - таба, видео

Регистрация Запомнить меня
Войти через:  Facebook Google Twitter Vk Yandex Mail.ru

John H Yates - Faith Is The Victory - таба, видео

Печатать
Просмотров: 88
Уроки эстрадного вокала в Санкт-Петербурге
-------------------------------------------------------------------------------
                        faith is the victory - John H. Yates
-------------------------------------------------------------------------------
Tabbed by:
E-mail:
key of D
Tuning:E-A-D-G-B-e

e|---------------------------------------------------------------------------|
B|---------------------------------------------------------------------------|
G|--2----2---------------------------0----0---------2---0--------2----2------|
D|--0----0----0-0--2----0---------------------2--------------4---0----0----0-|
A|------------0-0--0----0---4---4----4----4---4-----4---4----5-------------0-|
E|--------------------------5---5--------------------------------------------|
   encamped along the hills of light ye christian soldiers rise and press the 
e|---------------------------------------------------------------------------|
B|---------------------------------------------------------------------------|
G|------------------------0----0---------2----------------------------0---0--|
D|---0--2--0------------------------2-----------0-----4---4---2---2---2---2--|
A|---0--0--0---4----4-----4----4----4----4--4---0-----5---5---4---4----------|
E|-------------5----5-----------------------5--------------------------------|
   battle ere the night shall veil the glowing skies against the foe in vales
e|-----------------------------------------------------------------------------------|
B|-----------------------------------------------------3---2--0---0----0-------------|
G|--------2---2---------------1----2------0-------2------2------------------2--------|
D|--4--4--0-------2-----4-----0-----------2----4--0----4-0-0--0---0----0----0--0--4--|
A|--5--5------4---4-----5----------4-----------5----------------------------------5--|
E|-----------------------------------------------------------------------------------|
   below let all our strength be hurled faith is the victory we know that overcomes 
e|---------------------------------------------------------------------------|
B|---------------------------------------------------------------------------|
G|---------------------------------------------------------------------------|
D|--2----0-------------------------------------------------------------------|
A|--4------------------------------------------------------------------------|
E|---------------------------------------------------------------------------|
   the world
e|---------------------------------------------------------------------------|
B|-------------0----------------------------------0--0--2--3----3------------|
G|--------2-------4----2-0-0---0----2-------0--------------0------2-2---0----|
D|-------------0--5--------------------2----0-4-4-0--0--0-------4-4-0---0----|
A|---------------------4-4-4--------4--4------5-5----------------------------|
E|---------------------------------------------------------------------------|
chorus: faith is the victory faith is the victory oh glorious victory that 
e|---------------------------------------------------------------------------|
B|---------------------------------------------------------------------------|
G|-------0-------------------------------------------------------------------|
D|-4-4-------2----0----------------------------------------------------------|
A|-5-5---4---4----0----------------------------------------------------------|
E|---------------------------------------------------------------------------|
  overcomes the world 


************************************

| /   slide up
| \   slide down
| h   hammer-on
| p   pull-off
| ~   vibrato
| +   harmonic
| x   Mute note
| b   Bend
| pb  Pre-bend
| br  Bend release
| pbr Pre-bend release
| brb Bend release bend

************************************
Добавлено: 08.12.2015
Другие материалы по этой песне:
  • Аккорды и текст

Страница создана 08.12.2015
http://primanota.ru/john-h-yates/faith-is-victory-chords.htm
Привет, Гость.
Предлагаем пройти революционный курс по гитаре.
Подарок от PrimaNota.Ru, забирай!