PrimaNota.ru - самый крупный в мире бесплатный архив песенных текстов, аккордов, табулатур и нот


John H Stockton - Only Trust Him - таба, видео

Регистрация Запомнить меня
Войти через:  Facebook Google Twitter Vk Yandex Mail.ru

John H Stockton - Only Trust Him - таба, видео

Печатать
Просмотров: 108
-------------------------------------------------------------------------------
                         Only Trust Him - John H. Stockton
-------------------------------------------------------------------------------
Tabbed by:
E-mail:
Key Of F
Tuning:E-A-D-G-B-e

e|---------------------------------------------------------------------------|
B|-------------------------------------------1--1-------------------1--------|
G|---------------------2---2---0--------------------2-------0----2-------2---|
D|---------0-------3---2---2-----------3-----3--3---2---3---2----2--3----2---|
A|--3---3--2---3---3-----------3-------3-------------------------------------|
E|--5---5------5-------------------------------------------------------------|
   come every soul by sin oppressed There's mercy with the Lord and He will
e|---------------------------------------------------------------------------|
B|---------------------------------------------------------------------------|
G|-2-0-------------------------------2--0------------------------------------|
D|-2---3---3----0---0------------3---2--2---3--------------------------------|
A|-----3---5----2---2---3---3----3----------3--------------------------------|
E|----------------------5---5------------------------------------------------|
   surely give you rest by trusting in His word
e|---------------------------------------------------------------------------|
B|-------1-----------------------------------------------1-------------------|
G|---------2--2---0---------------------------2-------0------2----2--0-------|
D|-------3-2--2-----3--3--0---0----------3----2---3---2--3---2----2----3--3--|
A|------------------3--5--2---2----3---3-3--------3--------------------3--5--|
E|---------------------------------5-----------------------------------------|
chorus: only trust Him only trust Him only trust Him now He will save you He
e|---------------------------------------------------------------------------|
B|---------------------------------------------------------------------------|
G|--------------------------2---0--------------------------------------------|
D|----0---0-----------3-----2---0---3----------------------------------------|
A|----2---2----3--3---3-------------3----------------------------------------|
E|-------------5--5----------------------------------------------------------|
    will save you He will save you now



************************************

| /   slide up
| \   slide down
| h   hammer-on
| p   pull-off
| ~   vibrato
| +   harmonic
| x   Mute note
| b   Bend
| pb  Pre-bend
| br  Bend release
| pbr Pre-bend release
| brb Bend release bend

************************************
Добавлено: 02.12.2015
Другие материалы по этой песне:
  • Аккорды и текст

Страница создана 02.12.2015
http://primanota.ru/john-h-stockton/only-trust-him-chords.htm
Привет, Гость.
Предлагаем пройти революционный курс по гитаре.
Подарок от PrimaNota.Ru, забирай!