PrimaNota.ru - самый крупный в мире бесплатный архив песенных текстов, аккордов, табулатур и нот


John H Sammis - Trust And Obey - таба, видео

Регистрация Запомнить меня
Войти через:  Facebook Google Twitter Vk Yandex Mail.ru

John H Sammis - Trust And Obey - таба, видео

Печатать
Просмотров: 73
-------------------------------------------------------------------------------
                            trust and obey   - John H. sammis
-------------------------------------------------------------------------------
Tabbed by:
E-mail:
key of F
Tuning:E-A-D-G-B-e

e|---------------------------------------------------------------------------|
B|-------------------------------------1---1----------------------3----------|
G|------0---2-----2---0-----------2------------3----2----2--2---3----3---2---|
D|---3------3-----3---2---3----3--3----2---2---2----3----3--3---3-3--3---3---|
A|---3--3--------------------------------------------------------------------|
E|---------------------------------------------------------------------------|
   when we walk with the Lord in the light of His word what a glory He sheds
e|---------------------------------------------------------------------------|
B|--1----------------------------------------1----1-------------------------3|
G|-----2---0-------0--2--2----0-----------2-----------3----2---2----2---3----|
D|--2--3---2---3------3--3----2----3--3---3--2----2---2----3---3----3---3---3|
A|-------------3---3---------------------------------------------------------|
E|---------------------------------------------------------------------------|
   on our way let us do His good will He abides with us still and with all who
e|---------------------------------------------------------------------------|
B|---------------------------------------------------------------------------|
G|--3-----2--------0---------------------------------------------------------|
D|--3-----3----3-----3-------------------------------------------------------|
A|-------------3---3-3-------------------------------------------------------|
E|---------------------------------------------------------------------------|
   will trust and obey
e|---------------------------------------------------------------------------|
B|--------1-------1----------------3------1------------------------1---------|
G|-------------0----2---2----2---------2-----3---3--3--3-2---0--2---------0--|
D|--------2----2--2-3---3----3-----4---3--3--5---5--5--5-3---2--3--3--3------|
A|---------------------------------------------------------------------------|
E|---------------------------------------------------------------------------|
chorus: trust and obey for there's no other way to be happy in Jesus but to 
e|---------------------------------------------------------------------------|
B|---------------------------------------------------------------------------|
G|---2-------0---------------------------------------------------------------|
D|---3----3----3-------------------------------------------------------------|
A|--------3--3-3-------------------------------------------------------------|
E|---------------------------------------------------------------------------|
   trust and obey 


************************************

| /   slide up
| \   slide down
| h   hammer-on
| p   pull-off
| ~   vibrato
| +   harmonic
| x   Mute note
| b   Bend
| pb  Pre-bend
| br  Bend release
| pbr Pre-bend release
| brb Bend release bend

************************************
Добавлено: 11.12.2015
Другие материалы по этой песне:
  • Аккорды и текст

Страница создана 11.12.2015
http://primanota.ru/john-h-sammis/trust-and-obey-chords.htm
Привет, Гость.
Предлагаем пройти революционный курс по гитаре.
Подарок от PrimaNota.Ru, забирай!