PrimaNota.ru - самый крупный в мире бесплатный архив песенных текстов, аккордов, табулатур и нот


John Frusciante - Time gone back - аккорды и текст, видео

Регистрация Запомнить меня
Войти через:  Facebook Google Twitter Vk Yandex Mail.ru

John Frusciante - Time gone back - аккорды и текст, видео

Печатать
Просмотров: 100
Уроки эстрадного вокала в Санкт-Петербурге
Time gone back
John Frusciante


John Frusainte: Time Goes Back
Album: Shadows Collide With People


Standard tuning
  G           D      Dsus Am         C
|-3-3-3-3-3-3-2-2-2-2-3-3------------------------|
|-3-3-3-3-3-3-3-3-3-3-3-3-1-1-1-1-1-1-1-1-1-1-1-1|
|-0-0-0-0-0-0-2-2-2-2-2-2-2-2-2-2-2-2-0-0-0-0-0-0|
|-0-0-0-0-0-0-0-0-0-0-0-0-2-2-2-2-2-2-2-2-2-2-2-2|
|-2-2-2-2-2-2-------------0-0-0-0-0-0-3-3-3-3-3-3|
|-3-3-3-3-3-3 -----------------------------------|X6


These things'll go slowly by
These things
They'll be where no one would think
And when given this life
I ought've thanked you all who will take it away
Chours
  Am      C
|------------------|
|-1-1-1-1-1-1-1-1--|
|-2-2-2-2-0-0-0-0--|
|-2-2-2-2-2-2-2-2--|
|-0-0-0-0-3-3-3-3--|
|------------------|
I notice that you're fine
Setting up beside wherever turns a blind eye

Back to main riff

G   D  Dsus Am  c
Any solemn phase
And you belong to two times at once
My radio's my heart
We live as one
Two ways at once

Chours
Am  C
know the waves I form
I know the way I won't become
Solo:
  G                     D                Am
|-3------3---3-----3----5---5-----5------5--------5------
|---3------3-----3---3/---5-----5----5----5---5-----5---5
|-----0--------0--------7-----7--------7---5-5--5-----5--
|--------------------------------------------------------
|--------------------------------------------------------
|--------------------------------------------------------



  C          G
|-8-----8-------10-----|
|--8--8---8/-12----12--|
|---9------------------|
|----------------------|
|----------------------|
|----------------------|

Main riff

These still places that are gone by
Belive they're somewhere else
(belive they're somebody else)
Jumping in the mind of a passerby
And being replaced like times flies


Chours
Another wasted flaw
Going up against the endless law

Main riff

I'm flown through a mirror
Almost disappearing
I glow fainty
You know this is nobody's life

Chours
I saw the days I lost
Hiding behind tomorrow's costs
Time going backx6

Outro:first line of Solo


Great song one of my all time favorites


Добавлено: 20.10.2013
Другие материалы по этой песне:
  • Аккорды и текст

Страница создана 20.10.2013
http://primanota.ru/john-frusciante/time-gone-back-chords.htm
Привет, Гость.
Предлагаем пройти революционный курс по гитаре.
Подарок от PrimaNota.Ru, забирай!