PrimaNota.ru - самый крупный в мире бесплатный архив песенных текстов, аккордов, табулатур и нот


John Frusciante - Prostitution Song - таба, видео

Регистрация Запомнить меня
Войти через:  Facebook Google Twitter Vk Yandex Mail.ru

John Frusciante - Prostitution Song - таба, видео

Печатать
Просмотров: 207
e|----------------------------------|
B|----------------------------------|
G|----------------------------------|
D|----------------------------------|repeat x times
A|----------------------------------|
E|-3h5—5—5-5---5-5--3h5-5-5---5-5-5-|


e|-11--------9--------8-------------|
B|----13-------11------9--9/11--11--|
G|-------13-------10----8-----------|
D|----------------------------------|
A|----------------------------------|
E|----------------------------------|
 |                                  |repeat 4x
e|----------------------------------|
B|----------------------------------|
G|----------------------------------|
D|----------------------------------|
A|-5---3—-5/7\5--3------------------|
E|-——--------------5-3-3h5-5--5-5-5-|


e|----------------------------------|
B|----------------------------------|
G|----------------------------------|
D|----------------------------------|repeat x times
A|-7---7-7-7---7-7--7---7-7---7-7-7-|
E|-3h5—5—5-5---5-5--3h5-5-5---5-5-5-|

e|--------------------------------------------|
B|--------------------------------------------|
G|--------------------------------------------|
D|--------------------------------------------|
A|-12--10-12/14\12-10-------------------------|
E|-------------------12-10-10h12-12--12-12-12-|
 |                                            |
e|--------------------------------------------|
B|--------------------------------------------|
G|--------------------------------------------|
D|--------------------------------------------|
A|-5---3—-5-/-7-\5-3--------------------------|
E|-——-----------------5--3--3h5--5---5—-5--5--|

e|--------------------------------------------|
B|--------------------------------------------|
G|--------------------------------------------|
D|--------------------------------------------|
A|-12--10-12/14\12-10--------10h12p10---------|
E|-------------------12-10-12--------12-12-12-|
 |                                            |
e|--------------------------------------------|
B|--------------------------------------------|
G|--------------------------------------------|
D|--------------------------------------------|
A|-5---3—-5-/-7-\5-3--------------------------|
E|-——-----------------5--3--3h5--5---5—-5--5--|

e|--------------------------------------------|
B|--------------------------------------------|
G|--------------------------------------------|
D|--------------------------------------------|
A|-12--10-12/14\12-10-------------------------|
E|-------------------12-10-10h12-12--12-12-12-|
 |                                            |
e|--------------------------------------------|
B|--------------------------------------------|
G|--------------------------------------------|
D|--------------------------------------------|
A|-5---3—-5-/-7-\5-3--------------------------|
E|-——-----------------5--3--3h5--5---5—-5--5--|

e|--------------------------------------------|
B|--------------------------------------------|
G|--------------------------------------------|
D|--------------------------------------------|
A|-12--10-12/14\12-10-------------------------|
E|-------------------12-10-12-12-10/12--------|
 |                                            |
e|--------------------------------------------|
B|--------------------------------------------|
G|--------------------------------------------|
D|--------------------------------------------|
A|-5---3—-5-/-7-\5-3--------------------------|
E|-——-----------------5--3--5--5—-3-/5—-------|



e|-----------------13---------------|
B|------------------------16--16----|
G|----------------------------------|
D|----------------------------------|
A|----------------------------------|
E|----------------------------------|
 |                                  |repeat few times
e|----------------------------------|
B|----------------------------------|
G|----------------------------------|
D|----------------------------------|
A|----------------------------------|
E|-3h5—5—5-5---5-5--3h5-5-5---5-5-5-|

e|-16------15----14------13------12----11-----|
B|----14------14----13------11------11----9---|
G|-------13------------11------10-----------8-|
D|--------------------------------------------|
A|--------------------------------------------|
E|--------------------------------------------|
 |                                            |
e|--------------------------------------------|
B|--------------------------------------------|
G|--------------------------------------------|
D|--------------------------------------------|
A|-5---3—-5-/-7-\5-3--------------------------|
E|-——-----------------5--3--3h5--5---5—-5--5--|

e|-10------9-----8-----7------6-----5---------|
B|----9-------9----6-----5-------5----4-------|
G|------7------------5-----4------------2-----|
D|--------------------------------------------|
A|--------------------------------------------|
E|--------------------------------------------|
 |                                            |
e|--------------------------------------------|
B|--------------------------------------------|
G|--------------------------------------------|
D|--------------------------------------------|
A|-5---3—-5-/-7-\5-3--------------------------|
E|-——-----------------5--3--3h5--5---5—-5--5--|

e|--------------------------------------------|
B|--------------------------------------------|
G|-0--------0-1-2-3-4-5-6-7-9-10--------------|
D|--------------------------------------------|
A|--------------------------------------------|
E|--------------------------------------------|
 |                                            |
e|--------------------------------------------|
B|--------------------------------------------|
G|--------------------------------------------|
D|--------------------------------------------|
A|-5---3—-5-/-7-\5-3--------------------------|
E|-——-----------------5--3--3h5--5---5—-5--5--|

e|--------------------------------------------|
B|--------------------------------------------|
G|--------9-10-11-12-13-14--------------------|
D|--------------------------------------------|
A|--------------------------------------------|
E|--------------------------------------------|
 |                                            |
e|--------------------------------------------|
B|--------------------------------------------|
G|--------------------------------------------|
D|--------------------------------------------|
A|-5---3—-5-/-7-\5-3--------------------------|
E|-——-----------------5--3--3h5--5---5—-5--5--|

e|--9--------8--------4----4/6---6--|
B|----11--------9------4------------|
G|-------10--------8----3-----------|
D|----------------------------------|
A|----------------------------------|
E|----------------------------------|
 |                                  |repeat 3x
e|----------------------------------|
B|----------------------------------|
G|----------------------------------|
D|----------------------------------|
A|-5---3—-5/7\5--3------------------|
E|-——--------------5-3-3h5-5--5-5-5-|

e|--9--------8--------4----4/6—6/9--|
B|----11--------9------4------------|
G|-------10--------8----3-----------|
D|----------------------------------|
A|----------------------------------|
E|----------------------------------|
 |                                  |
e|----------------------------------|
B|----------------------------------|
G|----------------------------------|
D|----------------------------------|
A|-5---3—-5/7\5--3------------------|
E|-——--------------5-3-3h5-5--5-5-5-|

e|----------------------------------|
B|----------------------------------|
G|--10--8--6--8--8--10--8--6--8--8--|
D|----------------------------------|
A|----------------------------------|
E|----------------------------------|
 |                                  |
e|----------------------------------|
B|----------------------------------|
G|----------------------------------|
D|----------------------------------|
A|----------------------------------|
E|-3h5—5—5-5---5-5--3h5-5-5---5-5-5-|

e|----------------------------------|
B|----------------------------------|
G|----------------------------------|
D|----------------------------------|
A|--------------------------9-10-11-|
E|---------------10-11-12-13--------|
 |                                  |
e|----------------------------------|
B|----------------------------------|
G|----------------------------------|
D|----------------------------------|
A|----------------------------------|
E|-3h5—5—5-5---5-5--3h5-5-5---5-5-5-|

e|----------------------------------|
B|----------------------------------|
G|----------------------------------|
D|-------------------------11-12-13-|
A|-12-----------12-13-14-15---------|
E|----------------------------------|
 |                                  |
e|----------------------------------|
B|----------------------------------|
G|----------------------------------|
D|----------------------------------|
A|----------------------------------|
E|-3h5—5—5-5---5-5--3h5-5-5---5-5-5-|

e|----------------------------------|
B|----------------------------------|
G|-------------------------12-13-14-|
D|-14----------13-14-15-16----------|
A|----------------------------------|
E|----------------------------------|
 |                                  |
e|----------------------------------|
B|----------------------------------|
G|----------------------------------|
D|----------------------------------|
A|----------------------------------|
E|-3h5—5—5-5---5-5--3h5-5-5---5-5-5-|

e|----------------------------------|
B|--------------------14------------|
G|-15----(15)-----------14p13p11-14/|
D|----------------------------------|
A|----------------------------------|
E|----------------------------------|
 |                                  |repeat 6x
e|----------------------------------|
B|----------------------------------|
G|----------------------------------|
D|----------------------------------|
A|----------------------------------|
E|-3h5—5—5-5---5-5--3h5-5-5---5-5-5-|

e|----------------------------------|
B|----------------------15-16-17-18-|
G|-15---15---15-16-17-18------------|
D|----------------------------------|
A|----------------------------------|
E|----------------------------------|
 |                                  |
e|----------------------------------|
B|----------------------------------|
G|----------------------------------|
D|----------------------------------|
A|----------------------------------|
E|-3h5—5—5-5---5-5--3h5-5-5---5-5-5-|

e|-------14----16-14------------14-------14------|
B|----14----14------16-14----14-------14------14-|
G|-15---------------------15-------15------15----|
D|-----------------------------------------------|3x
A|-----------------------------------------------|
E|-----------------------------------------------|
 |                                               |
e|-----------------------------------------------|
B|-----------------------------------------------|
G|--------6-----10-8-6----------8--------8-------|
D|-----8---------------8-----8--------8--------8-|
A|--9-------9-------------6--------6--------6----|
E|-----------------------------------------------|

e|-------14----16-14------------14-------14------|
B|----14----14------16-14----14-------14---------|
G|-15---------------------15-------15------------|
D|-----------------------------------------------|
A|-----------------------------------------------|
E|-----------------------------------------------|
 |                                               |
e|-----------------------------------------------|
B|-----------------------------------------------|
G|--------6-----10-8-6----------8--------8-------|
D|-----8---------------8-----8--------8----------|
A|--9-------9-------------6--------6-------------|
E|-----------------------------------------------|

e|----------------------------------|
B|----------------------------x-x-x-|
G|----------------------------------|
D|----------------------------------|repeat x times
A|----------------------------------|
E|-3h5—5—5-5---5-5--3h5-5-5---5-5-5-|

e|--18-16-14-16--14-13-13h14p13------------------|
B|-------------------------------16----16--------|
G|-----------------------------------------------|
D|-----------------------------------------------|
A|-----------------------------------------------|
E|-----------------------------------------------|
 |                                               |
e|-----------------------------------------------|
B|-----------------------------------------------|
G|--------6-----10-8-6----------8--------8-------|
D|-----8---------------8-----8--------8--------8-|
A|--9-------9-------------6--------6--------6----|
E|-----------------------------------------------|

e|-------16--------------------------------------|
B|--b15-------b15~~p13-15-----15-----------------|
G|-----------------------------------------------|
D|-----------------------------------------------|
A|-----------------------------------------------|
E|-----------------------------------------------|
 |                                               |
e|-----------------------------------------------|
B|-----------------------------------------------|
G|--------6-----10-8-6----------8--------8-------|
D|-----8---------------8-----8--------8--------8-|
A|--9-------9-------------6--------6--------6----|
E|-----------------------------------------------|

e|--18-16-14-16--14-13-13h14p13------------------|
B|-------------------------------16----16--------|
G|-----------------------------------------------|
D|-----------------------------------------------|
A|-----------------------------------------------|
E|-----------------------------------------------|
 |                                               |
e|-----------------------------------------------|
B|-----------------------------------------------|
G|--------6-----10-8-6----------8--------8-------|
D|-----8---------------8-----8--------8--------8-|
A|--9-------9-------------6--------6--------6----|
E|-----------------------------------------------|

e|-----------------------------------------------|
B|--b15---b15---b15--b15~p13-15-----15-----------|
G|-----------------------------------------------|
D|-----------------------------------------------|
A|-----------------------------------------------|
E|-----------------------------------------------|
 |                                               |
e|-----------------------------------------------|
B|-----------------------------------------------|
G|--------6-----10-8-6----------8--------8-------|
D|-----8---------------8-----8--------8--------8-|
A|--9-------9-------------6--------6--------6----|
E|-----------------------------------------------|

e|----------------------------------|
B|------------------------------14--|
G|------------------------------11--|
D|----------------------------------|repeat till end
A|----------------------------------|
E|-3h5—5—5-5---5-5--3h5-5-5---5-5-5-|

Добавлено: 29.02.2012
Другие материалы по этой песне:
  • Аккорды и текст

Страница создана 29.02.2012
http://primanota.ru/john-frusciante/prostitution-song-chords.htm
Привет, Гость.
Предлагаем пройти революционный курс по гитаре.
Подарок от PrimaNota.Ru, забирай!