PrimaNota.ru - самый крупный в мире бесплатный архив песенных текстов, аккордов, табулатур и нот


John Frusciante - Past Reccedes - бас-таба, видео

Регистрация Запомнить меня
Войти через:  Facebook Google Twitter Vk Yandex Mail.ru

John Frusciante - Past Reccedes - бас-таба, видео

Печатать
Просмотров: 186
Уроки эстрадного вокала в Санкт-Петербурге
Verse

G|----------------------|
D|--5---------7--7------|
A|-----5--0---------7-7-|
E|----------------------|
                                  Rinse and repeat
G|----------------------|
D|--5-----7-------------|
A|-----5----------------|
E|----------------------|

End of verse

G|--------------------------------------------------|
D|--5-----7--7--7-7-7-------------------------------|
A|-----5--------------------------------------------|
E|--------------------2--2-2--2-2-2--2-2-2-2-2-2-2--|

Chorus 1

G|------------------------------------------------|
D|---------------------4---------------------7----|
A|--3--3---3-5-6--6--6---6--------7---5--5------5-|
E|-------------------------7--7-----7-------------|

G|------------------------------------------------|
D|---------------------4---------------------7----|
A|--3--3---3-5-6--6--6---6--------7---5--5------5-|
E|-------------------------7--7-----7-------------|

G|----------------------------------------------------------------|
D|----------------------------------------------------------------|
A|--3--3---5-3--2--2---3-2--0--0--0-0--2--2--2-2-2--2-2-2-2-2-2-2-|
E|----------------------------------------------------------------|

Verse 2

G|----------------------|
D|--5---------7--7------|
A|-----5--0---------7-7-|
E|----------------------|

End of verse

G|--------------------------------------------------|
D|--5-----7--7--7-7-7-------------------------------|
A|-----5--------------------------------------------|
E|--------------------2--2-2--2-2-2--2-2-2-2-2-2-2--|

Chorus 2

G|-------------------3-----------------------------|
D|----------------5----5--------------------7-7----|
A|--3--3---3-5-6---------6--------7---5--5---5-5---|
E|-------------------------7--7-----7--------------|

G|------------------2-2-----------------------------|
D|----------------4-----4-1--------------------7----|
A|--3--3---3-5-6-------------2-----7-4--5--5------5-|
E|------------------------------0-------------------|

G|----------------------------------------------------------------|
D|----------------------------------------------------------------|
A|--3--3---5-3--2--2---3-2--0--0--0-0--2--2--2-2-2--2-2-2-2-2-2-2-|
E|----------------------------------------------------------------|

Solo

G|----------------------|
D|--5---------7--7------|
A|-----5--0---------7-7-|      over and over
E|----------------------|

End of solo

G|--------------------------------------------------|
D|--5-----7--7--7-7-7-------------------------------|
A|-----5--------------------------------------------|
E|--------------------2--2-2--2-2-2--2-2-2-2-2-2-2--|

Last Chorus

G|-------------------3-----------------------------|
D|----------------5----5--------------------7-7----|
A|--3--3---3-5-6---------6--------7---5--5---5-5---|
E|-------------------------7--7-----7--------------|

G|-------------------2------------------------------|
D|----------------4-----4-1--------------------7----|
A|--3--3---3-5-6-------------2-----7-4--5--5------5-|
E|------------------------------0-------------------|

G|--------------------------------------------------|
D|--------------------------------------------------|
A|--3--3---5-3--2--2---3-2--0--0--0-0--0-0-0--0-0-2-|
E|--------------------------------------------------|

G|----------------------------------------------------------------|
D|----------------------------------------------------------------|
A|--3--3---5-3--2--2---3-2--0--0--0-0--2--2--2-2-2--2-2-2-2-2-2-2-|
E|----------------------------------------------------------------|

Outro

G|-----------------------------|
D|--5----5---7-------7--7------|
A|-----5--5----5-0---------7-7-|
E|-----------------------------|

G|-----------------------------|
D|--5----5---7-------7--7------|
A|-----5--5----5-0---------7-7-|
E|-----------------------------|

G|--------------------------|
D|--5----5---7--------------|
A|-----5--5----5-0--0--0--0-|
E|--------------------------|

G|---------------------------------|
D|-------------------------------5-|
A|--2--2-2--2-2-2--2-2-2-2-2-2-2---|
E|---------------------------------|

This tab isn't mine. I got it from Jellynote.com

I tweaked it a little, though. If it's wrong, then I don't know...good luck finding a 
correct one. I'm pretty sure it's Heisenberg level, though (97%).

(That was a [Br]eaking [Ba]d reference)

Hope you enjoy it.
Добавлено: 17.12.2013
Другие материалы по этой песне:
  • Аккорды и текст

Страница создана 17.12.2013
http://primanota.ru/john-frusciante/past-reccedes-chords.htm
Привет, Гость.
Предлагаем пройти революционный курс по гитаре.
Подарок от PrimaNota.Ru, забирай!