PrimaNota.ru - самый крупный в мире бесплатный архив песенных текстов, аккордов, табулатур и нот


John Frusciante - Murderes - таба, видео

Регистрация Запомнить меня
Войти через:  Facebook Google Twitter Vk Yandex Mail.ru

John Frusciante - Murderes - таба, видео

Печатать
Просмотров: 246
Уроки эстрадного вокала в Санкт-Петербурге
-------------------------------------------------------------------------------
			     Murderers - John Frusciante
-------------------------------------------------------------------------------
Tabbed by: Melvin
Email: Carangatang@yahoo.com

Tuning: Standard
                            Chorus              
e|---------------------12-------------------------------------------------|
B|–12------------14------12----------------12-------------12-14-12--------|\ 
G|-----13-14-14-------------14-13-14---------13-14-14-------------14-13-14|x2
D|------------------------------------------------------------------------|/ 
A|------------------------------------------------------------------------| 
E|------------------------------------------------------------------------|
                          End Chorus
e|------------------------------------------------------------------ -----|
B|------9-----------------------------------------10----------------------|
G|------------------------------------------------------------------------|
D|------------------------------------------------------------------------|
A|------7------------------------------------------9----------------------|
E|------------------------------------------------------------------------|

e|------------------------------------------------------------------------|
B|-------9-----------------------------------------9----------------------|
G|-------------------------------------------------10---------------------|
D|------------------------------------------------------------------------|
A|-------7----------------------------------------------------------------|
E|--------------------------------------------------9---------------------|

e|------------------------------------------------------------------------|
B|-----7----7----9----9—–10------10----10------10--------10---------------|
G|------------------------------------------------------------------------|
D|------------------------------------------------------------------------|
A|-----5-5-------7-7-----9---------9-------9------9--------9--------------|
E|------------------------------------------------------------------------|

e|------------------------------------------------------------------------|
B|-----7---7------9----9---12----10–--10—--10–--10—---10------------------|
G|------------------------------------------------------------------------|
D|------------------------------------------------------------------------|
A|-----5-5--------7-7------10-----9-----9----9----9-----9-----------------|
E|------------------------------------------------------------------------|

e|------12----12----------------------------------------------------------|
B|-------------------------------9----9--10--10—----10----10—---10--------|
G|------------------------------------------------------------------------|
D|------------------------------------------------------------------------|
A|-------------------------------7-7------9-----9-----9-----9-----9-------|
E|------11–11-------------------------------------------------------------|

e|------------------------------------------------------------------------|
B|--------7----7---9---9—6------------------------------------------------|
G|------------------------------------------------------------------------|
D|------------------------------------------------------------------------|
A|--------5-5------7-7---4------------------------------------------------|
E|------------------------------------------------------------------------|
			(Chorus)
e|-------------------------------------------------------------------|
G|-------------------------------------------------------------------|\		
B|-9--10–9–12–10–9–10----5-------------------------------------------| x2
D|-------------------------------------------------------------------|/
A|-----------------------3-------------------------------------------|
E|-------------------------------------------------------------------|
			(Chorus)

e|------------------------------------------------------------------------|
B|-----7----7----9----9—–10------10----10------10--------10---------------|
G|------------------------------------------------------------------------|
D|------------------------------------------------------------------------|
A|-----5-5-------7-7-----9---------9-------9------9--------9--------------|
E|------------------------------------------------------------------------|

e|------------------------------------------------------------------------|
B|-----7---7------9----9---12----10–--10—--10–--10—---10------------------|
G|------------------------------------------------------------------------|
D|------------------------------------------------------------------------|
A|-----5-5--------7-7------10-----9-----9----9----9-----9-----------------|
E|------------------------------------------------------------------------|

e|------12----12----------------------------------------------------------|
B|-------------------------------9----9--10--10—----10----10—---10--------|
G|------------------------------------------------------------------------|
D|------------------------------------------------------------------------|
A|-------------------------------7-7------9-----9-----9-----9-----9-------|
E|------11–11-------------------------------------------------------------|

e|------------------------------------------------------------------------|
B|--------7----7---9---9—6------------------------------------------------|
G|------------------------------------------------------------------------|
D|------------------------------------------------------------------------|
A|--------5-5------7-7---4------------------------------------------------|
E|------------------------------------------------------------------------|
                  Then the chorus to finish it

This is my first tab so i hope you like it!:)

===============================================================================
Добавлено: 21.04.2012
Другие материалы по этой песне:
  • Аккорды и текст

Страница создана 21.04.2012
http://primanota.ru/john-frusciante/murderes-chords.htm
Привет, Гость.
Предлагаем пройти революционный курс по гитаре.
Подарок от PrimaNota.Ru, забирай!