PrimaNota.ru - самый крупный в мире бесплатный архив песенных текстов, аккордов, табулатур и нот


John Frusciante - Invisible Moment - таба, видео

Регистрация Запомнить меня
Войти через:  Facebook Google Twitter Vk Yandex Mail.ru

John Frusciante - Invisible Moment - таба, видео

Печатать
Просмотров: 147
Most of the tabs i've seen for this song are wrong i thing it sounds more like this

(Brought to you by Dwayne Nunez)
e)-----------------------------------|
B)-----------------------------------|
G)-----9-------------------11--------|
D)---9---9-----9--------11---11------|
A)-7---------9---9---11---------11---|
E)---------7-------9---------------9-| 2 Times

e)---------------------------------------|
B)---------------------------------------|
G)-13-13h14p13-13--13/11--11--13p11/9--9-|
D)---------------------------------------|
A)---------------------------------------|
E)---------------------------------------|

e)-------------------------|
B)-14----12----------------|
G)----13-13-13--11/13/9--9-|
D)-------------------------|
A)-------------------------|
E)-------------------------|

e)----------------------------|
B)-------------12-------------|
G)-9/11--11/13-13--13/11/9--9-|
D)----------------------------|
A)----------------------------|
E)----------------------------|

e)----------------------------------------------------|
B)----------------------------------------------------|
G)----------------------------------------------------|
D)-5\3---3/5--5--5--3--5--6--5--3--5--3--1--8-8/10-10-|
A)------------------------------------------8---------|
E)----------------------------------------------------|

e)----------------------------------------------------|
B)----------------------------------------------------|
G)-11/13--13--13-11-13-11--9--11-13--14-13-11--11/9-9-|
D)----------------------------------------------------|
A)----------------------------------------------------|
E)----------------------------------------------------|

e)---------------------------------------------------------|
B)----------14-14-12-10-9-9p10-9-9h10/12-12-12-12/14-14-17-|
G)-9/13--13------------------------------------------------|
D)---------------------------------------------------------|
A)---------------------------------------------------------|
E)---------------------------------------------------------|

e)--------------------------------|
B)-14-12-12-10-10/9--10-----------|
G)----------------------12--------|
D)----------------------13-11/9-9-|
A)--------------------------------|
E)--------------------------------|

e)-----------------------------------|
B)-----------------------------------|
G)-----------------------------------|
D)-----------------------------------|
A)-9/11-11-9-11-7-9/11/12--12/11/9/7-|
E)-----------------------------------|

e)---------------------------------------------|
B)---------------------------------------------|
G)---------------------------------------------|
D)----------9-9-9/11--11-11-14/11-11-9-11-9-11-|
A)-9-11-9-7------------------------------------|
E)---------------------------------------------|

e)-------------------|
B)-------------------|
G)-------------------|
D)-------------------|
A)-11-11-9-11p9h11-7-|
E)-0--0--0-0-------0-|


The rest is best done as your own solo that last rift follows almost the same pattern as 
(RED HOT CHILI PEPPERS)
Добавлено: 15.07.2012
Другие материалы по этой песне:
  • Аккорды и текст

Страница создана 15.07.2012
http://primanota.ru/john-frusciante/invisible-moment-chords.htm
Привет, Гость.
Предлагаем пройти революционный курс по гитаре.
Подарок от PrimaNota.Ru, забирай!