PrimaNota.ru - самый крупный в мире бесплатный архив песенных текстов, аккордов, табулатур и нот


John Frusciante - I May Again Know John - текст песни, таба, видео

Регистрация Запомнить меня
Войти через:  Facebook Google Twitter Vk Yandex Mail.ru

John Frusciante - I May Again Know John - текст песни, таба, видео

Печатать
Просмотров: 184
Author/Artist: John Frusciante
Title: I May Again Know John
Album: Smile From The Streets You Hold
Transcribed by: Itay Auerbach
Email: itay7@newmail.net

Tune down 1/2 step

------------------------------------------------------------------------------
------------------------------------------------------------------------------
-----4-----4---------2-----2---------4-----4-------2-------4-------6-----6----
---2-----2-----2---2-----2-----2---2-----2---2---2---2---4---4---6---6--------
-0-----0-----0---0-----0-----0---0-----0-------0-------2-------4-------4---4--
------------------------------------------------------------------------------
(0:00)

-----------------------------------4------------------------------------------
-------5-------------4--4--------4----4-5-----------------------2-------------
-4----------4------6------6----6---------------4-----4----------2----2--------
-----6----6------6---------------------------2---2-----2------2----2----------
---4-----------4-------------4-------------0-------0-----0--0-----------------
------------------------------------------------------------------------------
(0:15)

------------------------------------------------------------------------------
-------------------------------------------------4-----5----5h7p5-------------
-----2-----4------1h2------3h4-------6-------6-----6-----6------------6-----6-
---2-----2------2--------4---------6---6---6---------6--------------6-----6---
-0-----0------0--------2---------4-------4-----4------------------4-----4-----
------------------------------------------------------------------------------
(0:31)

------------------------------------------------------------------------------
-7--5--4----------------------------------------------------------------------
---------6-4------6--------4---------2---------2-----4-----6--------4------2--
----------------6--------4---------2---------2-----4-----6--------4------2----
--------------4--------2---------0---------0-----2-----4--------2------0------
------------------------------------------------------------------------------
(0:47)

------------------------------------------------------------------------------
-------2-------2--------------------------------------------------------------
-------2-------2--------6-----6---6------4-------4-----2---2---2-----2-2------
-----2-------4--------6---6------------4-----4-------2-------------2-----2----
---0-------2--------4-------4---4----2-----2---2---0-----0---0---0------------
------------------------------------------------------------------------------
(1:14)

------------------------------------------------------------------------------
--------------------6--4--------------2---------------------------------------
-----------------6--------6--4---4-4---------2-----------------------4----4---
----4---------6----------------------------2----------2---2---2----2--------2-
--2-----2---4------------------2---------0----------0---2---0----0------0-----
------2-----------------------------------------------------------------------
(1:29)

------------------------------------------------------------------------------
----------------2-2--2b--------------------------------------4-------------4--
-----2----2---2--------------4-----4---4---2-2-------4-------6---6-6-6---6----
---2----2---2--------------4---4-----4---------2---4---4---6---6-------6------
-0-----------------------2-------2---------------2-------4--------------------
------------------------------------------------------------------------------
(1:47)

-------------------------5-4--7-----------------------------------------------
---7-5---------------------------4-5------------------------------------------
-6----------6-----6------------------------4-----4-------2-----------4-----4--
----------6-----6------6-----------------2-----2---2---2---2-------2-----2----
--------4-----4------4-----------------0-----0-------0-----------0-----0------
------------------------------------------------------------------------------
(2:01)

-----------4------------------------------------------------------------------
----------------------------4h5p4----------------7-5-----7-5-7-5--------------
-----2-----------6---6--6--------------6-----6-------------------------4------
---2-----4-----6---6------6----------6-----6-----------6----------------------
-0-----2-----4---------------------4-----4-----------4-----------4----\2------
------------------------------------------------------------------------------
(2:19)

----------------4-----------------7------7------------------------------------
---------------------------------------------------------------------------9--
--2---2----4----6------4------------------------------------------------------
------2----4----6------4-------7------9----------11-----11----11------9--9----
-\0---0----2----4------2-------7------9-------11-----11----11-------9---------
-------------------------------5------7-----9---------------------7-----------
(2:41)

------------------------------------------------------------------------------
-----5-------5----------------------------------------------------------------
------------------------------------------------------------------------------
---7---7---7------------------7-7---7-------7-7---7-----------9-9-------------
-7-------7--------6-6-6-----7-----7---7---7-----7---7-----9-9-----9-9---------
----------------4---------5-------------5-------------7-7--------------7-7----
(3:06)

------------------------------------------------------------------------------
----------------------------------------------------------------------9-8-7---
-----------------------------9-9----------------------------------------------
-----9-9--------9-----9---------------9-9--9-------7-7----------9-9-----------
-9-9-----9-9---------------11-------9------------7--------7---9---------------
--------------7----7-----9--------7------------5------------7-----------------
(3:20)

---------------------------------------5--------------------------------------
---------------------------------4--5-----------------------------------------
-6-----6-------6------4-----4-----------------4-4-----------------------------
-6-----6-------6------4-----4-------------------------------------------------
-4-----4-------4------2-----2---------------2---------------------------------
------------------------------------------------------------------------------
(3:37)

---------------------------------------|--------------------------------------
-/-------------------------------------|-------9-9----------------------------
-/------9------------------------------|-------9-9--------9---------------6---
-/----9---9--------9-9--------11-------|-----9-----9------9---------7---7-----
-/--7-------7----9------9--------11----|---7------------9---9-----7---7-------
---------------7------------9-------9--|--------------7---------5-------------
(3:52)                              x3

--------------------------------------------|---------------------------------
-----------------------------------------6--|------9-9------------------------
-6h7-------------------------------------6--|------9-9--------9---------------
----------7---7-----7--7---7-------------6--|----9-----9------9--------7---7--
--------7---7---7---7--7---7--------4-4-----|--7------------9---9----7---7----
------5-------------------------------------|-------------7--------5----------
(4:17)

---------------------------------------------------------|--------------------
---------------------------------------------------------|--------------------
-6----------------------------------------------------9--|-9--9---------------
---7---7----7----7-----6----6-----2---2---2---9---9---9--|-9--9--9-9--11-11---
---7---7----7----7-----6----6-----2---2---2---9---9---7--|-7--7--9-9--11-11---
---5---5----5----5-----4----4-----0---0---0---7---7------|-------7-7---9--9---
(4:33)

------------------------------------------------------------------------------
------------------------------------------------------------------------------
-9-9--------9-9-----------------------------9--------------------------9------
-9-9--9-9---9-9--9-9---12----------7--------9-------9------------------9--9---
-7-7--9-9---7-7--9-9---12----------7--------7-------9------------------7--9---
------7-7--------7-7---10----------5----------------7---------------------7---
(5:02)     WE   KNOW  ALONE AS WE ONE , OH I  HAVE KNOWN , THAT MEANS NO NO

------------------------------------------------------------------------------
------------------------------------------------------------------------------
--------9-----------------9----------------------------9----------------------
-7------9-9----7----------9-----9--7-------------9-----9----7-----------6-----
-7------7-9----7----------7-----9--7-------------9-----7----7-----------6-----
-5--------7----5----------------7--5-------------7----------5-----------4-----
ZONE,  I HAVE SEEN, THRU LINES OF LIES, WELL AT LEAST TELL ME, IS IS A MAD,

------------------------------------------------------------------------------
------------------------------------------------------------------------------
--------------9------------------------------7--------------------------------
-6---7--------9-----------9------------------7------------7-------------------
-6---7--------7-----------9------------------5------------7-------------------
-4---5--------------------7-------------------------------5-------------------
MAD CHOICE?  HEAVEN IS A PLACE OF DARKNESS, HEAVEN IS SO CLOSE OF BLACKNESS,

------------------------------------------------------------------------------
------------------------------------------------------------------------------
-5-----------------------------------------------------------9----------------
-5-----------5------------------------7----5--------3--------9-9----7---------
-3-----------5------------------------7----5--------3--------7-9----7---------
-------------3------------------------5----3--------1----------7----5---------
HEY, YOU'VE SEEN HER SHOW BUT DO YOU KNOW WHERE TO GO?  OHH I HAVE SEEN,

------------------------------------------------------------------------------
------------------------------------------------------------------------------
--9--------------------9-------------------------------------5----4-----------
--9----9--7------------9-----9----7-----------6---6---7------5----4-----------
--7----9--7------------7-----9----7-----------6---6---7------3----2-----------
-------7--5------------------7----5-----------4---4---5-----------------------
LINES OF L1ES,WELL AT LEAST TELL ME, IS IT A MAD MAD LIE?   IT'S BEEN SO

------------------------------------------------------------------------------
------------------------------------------------------------------------------
-------------5----4--------------5----4---------------------------------------
-7-----------5----4---7----------5----4-------7--------------6-----------7----
-7-----------3----2---7----------3----2-------7--------------6-----------7----
-5--------------------5-----------------------5--------------4-----------5----
LONG, WE'LL SING THE SONG, WELL LIFE LAST SO LONG, THAT THE HARM IS ALL ONE

------------------------------------------------------------------------------
------------------------------------------------------------------------------
-5----4-------------------5----4---------5----4-------------------------------
-5----4-------7-----------5----4---7-----5----4-------7--------------6--------
-3----2-------7-----------3----2---7-----3----2-------7--------------6--------
--------------5--------------------5------------------5--------------4--------
IT'S BEEN SO LONG, WE'LL SING THE SONG, LIFE LAST SO LONG, THAT THE HARM IS

-----------9------------------------------------------------------------------
------------------------------------------------------------------------------
------------------------------------------------------------------------------
-7----------------------------------------------------------------------------
-7----------------------------------------------------------------------------
-5----------------------------------------------------------------------------
ALL, AND WOOOOOOOO
Добавлено: 02.07.2012
Другие материалы по этой песне:
  • Аккорды и текст

Страница создана 14.06.2012
http://primanota.ru/john-frusciante/i-may-again-know-john-chords.htm
Привет, Гость.
Предлагаем пройти революционный курс по гитаре.
Подарок от PrimaNota.Ru, забирай!