PrimaNota.ru - самый крупный в мире бесплатный архив песенных текстов, аккордов, табулатур и нот


John Frusciante - Helical - таба, видео

Регистрация Запомнить меня
Войти через:  Facebook Google Twitter Vk Yandex Mail.ru

John Frusciante - Helical - таба, видео

Печатать
Просмотров: 224
Уроки эстрадного вокала в Санкт-Петербурге
I know this song contains 2 guitars 
but I've tabbed it like this so you can play this song on your own.

e|--------------------------------------------14--16--14--12--11--12-------|
B|--------------------------12--14-----------------------------------12—---|
G|-------11------------9-----------11-/-13~~----------------------------13-|
D|----------13--14------------------------13----------------9--------------|
A|----11-----------14------------------------------------------------------|
E|-12------------------9------------------11----------------9--------------|
 
e|------------------------------------------------------------7------------|
B|----------10-----------9-----------------------------7--9----------------|
G|-13p11-13-----9--8--9----------------------8-------9----------9--8-------|
D|--------------------------9--------9h11-9-----7p6------------------------|
A|----------12----------11-----------------------------------------6-------|
E|-------------------------------------------7-----------------------------|

e|-----11---12--16---14--12--11----------11/12-----------------------------|
B|---------------------------------12----------14---12--14----9-------12---|
G|-8/9--------------------------------13-------------------13--------------|
D|----------------------------------------------------------------14-------|
A|--------11-------------------/11----------------------------11-----------|
E|-------------------------------------------------------------------------|

e|-----------------0-------------------------------------------0-----------|
B|----10\9--------------9--------------------------------------------------|
G|---------9-11--13---11--------9---------------9--8-----------------------|
D|------------------------11\9-----------------------11--9-------9h11-9----|
A|-11-----------------------------12\11~~/12\11-------------11-------------|
E|-------------------------------------------------7-----------0-----------|

e|---0-----0---9--11-------14--16-----14p12-14-12---16-14-12---------------|
B|--------------9------12------------------------------------12------------|
G|-11--13--9-------------------13-----13-------------------------13p11--13-|
D|---------------------------------11----------11--------------------------|
A|--------------11-------0-------------------------------------------------|
E|-------------------------------------------------------------------------|

e|---------------------------------------------------0---------------------|
B|--------12h14--12----------10-------9------------------------9--12--10\9-|
G|-9---13------------11--13—-14p13-14p13--9----------------9h11------------|
D|------------------------------------------11--9------9h11----------------|
A|---------------------------------------------11--------------------------|
E|-9-----------------------------------------------0-----------------------|

e|---12---11----------12---16--14--16--14--12--11--12--16--14--12--11------|
B|----------14--12----------------------------------------------------12---|
G|-----------------13--------------14--13----------------------------------|
D|-11--13---14-------------------------------------------------------------|
A|-------------------------------------------------------------------------|
E|-----------------12------------------------------------------------------|

e|----0--------------------------------------------------------------------|
B|-0------------------12-----12-------------------0------------------------|
G|----13\11/13-----13----9------14p13--11--9--11--13------------13---------|
D|--------------9------------13—----------------------14—-13--14-----13/14-|
A|--------------------------------------------------------------11---------|
E|-0---------------------9---11--------------------------------------------|

                       E 
e|--------------------------7-------------------------|
B|---------------------9------------------------------|
G|-----11-------11--------9---------------------------|
D|-11----9--------------------------------------------|
A|---------11-----------------------------------------|
E|----------------------------------------------------|

Добавлено: 20.05.2012
Другие материалы по этой песне:
  • Аккорды и текст

Страница создана 20.05.2012
http://primanota.ru/john-frusciante/helical-chords.htm
Привет, Гость.
Предлагаем пройти революционный курс по гитаре.
Подарок от PrimaNota.Ru, забирай!