PrimaNota.ru - самый крупный в мире бесплатный архив песенных текстов, аккордов, табулатур и нот


John Frusciante - Dying Song - аккорды и текст, таба, видео

Регистрация Запомнить меня
Войти через:  Facebook Google Twitter Vk Yandex Mail.ru

John Frusciante - Dying Song - аккорды и текст, таба, видео

Печатать
Просмотров: 545
Dying Song
John Frusciante
John Frusciante - Dying Song

CAPO ON 1ST FRET! --- CAPO ON 1ST FRET!

Big thanks to wiggyisgreat who has actually written this tab (but with different chords). 
I just discovered an easier way to play this great song!

CAPO ON 1ST FRET! --- CAPO ON 1ST FRET!
Standard Tuning.

    Am   Em   F    E7   E    Dm   C    G  
E|-------0----1----0----0--------------7--|
B|--1----0----1----0----0----6----5----8--|
G|--2----0----2----1----1----7----5----7--|
D|--2----2----3----0----2----7----5----5--|
A|--0----2----3----2----2----5----3-------|
E|-------0----1----0----0-----------------|

Verse:

Am              Em  F
I'm goin' away forever
Am                Em F
I'm goin' away forever
Dm            E7       Am
Never comin' back this way
Dm            E7           Am
Never comin' back to this place


E|--------------7-----------|
B|------6-------6----1------|
G|------7-----7------2------| x2
D|----7--------------2------|
A|--5-------7--------0------|
E|--------------------------|

Verse:

Am               Em  F
What I need is a heaven
Am                      Em  F
What I really need is a heaven
Dm                  E7           Am
A place to go where I can really be
Dm                  E7            F   E
A place to go where I can really be----
F   E                  F   Em
    Where I can really be----


E|-------------7------------|
B|------6------6------------|
G|------7------7------------|
D|----7---------------------|
A|--5-----5----7------------|
E|--------------------------|


Verse:

Am                               Em  F
Dreamin' my life away counts for nothin'
Am                               Em  F
Dreamin' my life away counts for nothin'
Dm               E7     Am
But nothin' ever is the end
Dm              E7     Am   C  G  Dm  < Start playing these strings seperately like this:
No nothin' ever is the end ----------

    Am       C      G      Dm
E|----------------------7------6----|
B|--------1------5------8------7----|
G|--------2------5----7------7------| ----
D|------2------5----5------5--------|
A|----0------3----------------------|
E|----------------------------------|


Am                    C        G   Dm
It's sure been a full life for me baby
Am                    C        G   Dm
It's sure been a full life for me yeah
Am                    F        C   G
It's sure been a full life for me baby

x3


Dm               E7            Am
It's sure been a full life for me ---
Добавлено: 02.10.2015
Другие материалы по этой песне:

Страница создана 23.03.2012
http://primanota.ru/john-frusciante/dying-song-chords.htm
Привет, Гость.
Предлагаем пройти революционный курс по гитаре.
Подарок от PrimaNota.Ru, забирай!