PrimaNota.ru - самый крупный в мире бесплатный архив песенных текстов, аккордов, табулатур и нот


John Foxx And The Maths - Shatterproof - бас-таба, видео

Регистрация Запомнить меня
Войти через:  Facebook Google Twitter Vk Yandex Mail.ru

John Foxx And The Maths - Shatterproof - бас-таба, видео

Печатать
Просмотров: 21
Tabbed by: bassm99
E-mail: alanmatthews1966@yahoo.co.uk

Tuning: B, E, A, D, G (5 String Bass)

"Shatterproof" from the album "Interplay" (2011)
Written by John Foxx/Benge

Bass Starts: 0:37

Verse: (Play 4 Times)   

G|--------------------------------------------------------------------------|
D|--------------------------------------------------------------------------|
A|--------------------------------------------------------------------------|
E|----------6-6-------------------------------------------------------------|
B|--3-3-3-------------------------------------------------------------------|

Chorus: (Play 4 Times)

G|--------------------------------------------------------------------------|
D|--------------------------------------------------------------------------|
A|--------------------------------------------------------------------------|
E|----------6-6-------------------------------------------------------------|
B|--3-3-3-------------------------------------------------------------------|

Repeat Verse: (Play 10 Times)

Repeat Chorus:

Bass Stops: (2:05 - 2:21)

Repeat Verse: (Play 8 Times)

Bass Stops: (2:52 - 3:09)

Repeat Verse: (Play 6 Times)

Repeat Chorus: (Play 11 Times)

End:

G|--------------------------------------------------------------------------|
D|--------------------------------------------------------------------------|
A|--------------------------------------------------------------------------|
E|--------------------------------------------------------------------------|
B|--3-3-3-------------------------------------------------------------------|
Добавлено: 15.04.2016
Вам также может быть интересно:
Другие материалы по этой песне:
  • Аккорды и текст

Страница создана 15.04.2016
http://primanota.ru/john-foxx-and-maths/shatterproof-chords.htm
Привет, Гость.
Предлагаем пройти революционный курс по гитаре.
Подарок от PrimaNota.Ru, забирай!