PrimaNota.ru - самый крупный в мире бесплатный архив песенных текстов, аккордов, табулатур и нот


John Foxx And The Maths - Catwalk - бас-таба, видео

Регистрация Запомнить меня
Войти через:  Facebook Google Twitter Vk Yandex Mail.ru

John Foxx And The Maths - Catwalk - бас-таба, видео

Печатать
Просмотров: 40
Tabbed by: bassm99
E-mail: alanmatthews1966@yahoo.co.uk

Tuning: E, A, D, G

"Catwalk" from the album "Interplay" (2011)
Written by John Foxx/Benge

Intro: (Play Twice)   

G|--------------------------------------------------------------------------|
D|--------------------------------------------------------------------------|
A|--7-7-7-7-7-7-7-7--10-10-10-10--12-12-12-12-------------------------------|
E|--------------------------------------------------------------------------|

Verse: (Play 8 Times)

G|--------------------------------------------------------------------------|
D|--------------------------------------------------------------------------|
A|--7-7-7-7-7-7-7-7--10-10-10-10--12-12-12-12-------------------------------|
E|--------------------------------------------------------------------------|

Chorus: (Play 8 Times)

G|--------------------------------------------------------------------------|
D|--------------------------------------------------------------------------|
A|--7-7-7-7-7-7-7-7--10-10-10-10--12-12-12-12-------------------------------|
E|--------------------------------------------------------------------------|

Repeat Verse: (Play 6 Times)

Repeat Chorus:

Bass Stops: (1:51 - 2:19)

Repeat Chorus:

Synth Effect Section: (Play Twice)

G|--------------------------------------------------------------------------|
D|--------------------------------------------------------------------------|
A|--7-7-7-7-7-7-7-7--10-10-10-10--12-12-12-12-------------------------------|
E|--------------------------------------------------------------------------|

Bass Stops: (2:53 - 3:21)

Chorus:

G|--------------------------------------------------------------------------|
D|--------------------------------------------------------------------------|
A|--7-7-7-7-7-7-7-7--10-10-10-10--12-12-12-12-(x11)--7-7-(x1)---------------|
E|--------------------------------------------------------------------------| 

Bass Stops: (4:00 - 4:03)

Instrumental Ending: (Fades Out)

G|--------------------------------------------------------------------------|
D|--------------------------------------------------------------------------|
A|--7-7-7-7-7-7-7-7--10-10-10-10--12-12-12-12-(x16)--7-7-7-7-7-7-(x1)-------|
E|--------------------------------------------------------------------------|
Добавлено: 15.04.2016
Вам также может быть интересно:
Другие материалы по этой песне:
  • Аккорды и текст

Страница создана 15.04.2016
http://primanota.ru/john-foxx-and-maths/catwalk-chords.htm
Привет, Гость.
Предлагаем пройти революционный курс по гитаре.
Подарок от PrimaNota.Ru, забирай!