PrimaNota.ru - самый крупный в мире бесплатный архив песенных текстов, аккордов, табулатур и нот


John Fogerty - Swamp River Day - таба, видео

Регистрация Запомнить меня
Войти через:  Facebook Google Twitter Vk Yandex Mail.ru

John Fogerty - Swamp River Day - таба, видео

Печатать
Просмотров: 135
Artist: John Fogerty
Album: Blue Moon Swamp
Song: Swamp River Days
Tabed For Tune: E
Tabed By Janne Tschokkinen
E-Mail: janne.tschokkinen@kolumbus.fi
Site: http://www.kolumbus.fi/janne.tschokkinen

!!!These tabs were created without any kinds of money making 
purposes and are to be used only for educational purposes!!!

!!!C not re-publish this tab without permission!!!
--------------------------------------------------------------

Intro:
E|--------------|-------------------|--------------|
H|--------------|-------------------|--------------|
G|.------------.|-----0-------------|--------------|
D|.0--2-2--2-2-.|-0-------2-2--2-2--|-0--2-2--2-2--|
A|-0--2-2--2-2--|-0-----------------|-0--2-2--2-2--|
E|--------------|----0--------------|--------------|

  Fig.1                1.
E|--------------------|--------------------|
H|--------------------|--------------------|
G|.-0----------0------|--0-------2--2-0---.|
D|.---2-2-0-2----2-2--|----2-2-0----------.|
A|--------------------|--------------------|
E|-0------------------|-0------------------|

  2.                                   End Fig.1
E|-2---------0---------|-2---------0-----------|
H|-3----3-2--0---------|-3----3-2--0-----------|
G|-2----2-2--1---------|-2----2-2--1-----------|
D|-0----2-2--2---2-2-2-|-0----2-2--2---2-2-2-0-|
A|------0-0--2---------|------0-0--2-----------|
E|-----------0---------|-----------0-----------|


Verse: 1
E | E | E | E | A | A | E | H | E | D | A | E |

Verse: 2
E | E | E | E | A | A | E | H | E | D | A | E |

Verse: 3
E | H | H | E | E | H | H | H |

Solo:
|: E | E | E | E | A | H | E | E :|

Verse: 3
E | E | E | E | A | A | E | H | E | D | A | E | D | A | E |

Outro:
Fig.1 (1st three bars only) | Fig.1 till fade |

     
Добавлено: 02.09.2013
Другие материалы по этой песне:
  • Аккорды и текст

Страница создана 02.09.2013
http://primanota.ru/john-fogerty/swamp-river-day-chords.htm
Привет, Гость.
Предлагаем пройти революционный курс по гитаре.
Подарок от PrimaNota.Ru, забирай!