PrimaNota.ru - самый крупный в мире бесплатный архив песенных текстов, аккордов, табулатур и нот


John Fogerty - Hey Tonight - таба, видео

Регистрация Запомнить меня
Войти через:  Facebook Google Twitter Vk Yandex Mail.ru

John Fogerty - Hey Tonight - таба, видео

Печатать
Просмотров: 249
Авторы музыки: John Fogerty
Авторы текста: John Fogerty
This song is one of Mr. Fogerty's greatest hits
i wrote this tab because i like this song

e--12--9--7-------0--0--0--| |-0----0---0----0----0----0----0----0|
B--0------0--5\0-----2--0--| |-0----0---0----0----0----0----0----0|
G--------------------------| |-4----4-------4-----4----4---------4|
D--------------------------| |-6----4---1---4-----6----4----1----4|
A--------------------------| |----------2-------------------2-----|
E--------------------------| |------------------------------------|

|---------------------------|  |-----0-----0-----0----0--|
|-----0-----0------0-----0--|  |-----2-----2-----2----2--|
|-----1-----1------1-----1--|  |--2-----2-----2-----2----|
|-----2-----2------2-----2--|  |--2-----2-----2-----2----|
|---------------------------|  |--0-----0-----0-----0----|
|--0-----0------0-----0-----|  |-------------------------|

|-----0-----0-----0-----0--|  
|-----0-----0-----0-----0--|  
|-----1-----1-----1-----1--|  
|--2-----2-----2-----2-----|  
|--2-----2-----2-----2-----|  
|--------------------------|  

 
 Chorus:
|----------------------------------------------------|
|----------------------------------------------------|
|----------------------------------------------------|
|--4-4-6-4-4-4-6-4-4-4-6-4-4-4-6-4-4-4-6-4-4-4-6-4---|
|--2-2-2-2-2-2-2-2-2-2-2-2-4-4-4-4-4-4-4-4-4-4-4-4---|
|----------------------------------------------------|

E1
Hey Tonight gonna be tonight don't change now I'm flyin' To
A        E2
Night to-night
E1
Hey Come on gonna change tomorrow to-
A        E2
night to-night

chorus:
Gonna get into the rafters watch me now
Jodie's gonna find religion all night long

E1
Hey come on gonna hear the song
A       E2
tonight tonight

|-0--0--0---0-0--0--0--0--0--0--0--0--0--0--0--|
|-9-----10----9--5-----0-----0-----0-----0--0--|
|----------------------4-----2-----1-----1-----| X2
|----------------------------------------2-----|
|----------------------------------------------|
|----------------------------------------------|

B  E1
ah hey tonight gonna be tonight
A       E2       A 
tonight Tonight  Tonight

Tonight
       
Ending: Play n' Fade

|---0-----0-----0-----0--|
|---0-----0-----0-----0--|
|-4----4-----1-----4-----|
|-6----4-----2-----4-----|
|------------------------|
|------------------------|
Добавлено: 21.07.2012
Другие материалы по этой песне:
  • Аккорды и текст

Страница создана 21.07.2012
http://primanota.ru/john-fogerty/hey-tonight-chords.htm
Привет, Гость.
Предлагаем пройти революционный курс по гитаре.
Подарок от PrimaNota.Ru, забирай!