PrimaNota.ru - самый крупный в мире бесплатный архив песенных текстов, аккордов, табулатур и нот


John Fogerty - Big Train (From Memphis) - текст песни, бас-таба, видео

Регистрация Запомнить меня
Войти через:  Facebook Google Twitter Vk Yandex Mail.ru

John Fogerty - Big Train (From Memphis) - текст песни, бас-таба, видео

Печатать
Просмотров: 128
This is how I play it

Should have put a couple of 4 beat rests in at the start so the notation looks a little Iffy.

Listen to the song for structure


  Q Q Q Q Q Q E E E E Q Q Q Q Q Q E E E E Q Q E E E E Q Q T E E E E
|-------------------------------------9------------------------------|
|---9---9---9-----------9-------9-7-7---7-----------------8h9-7-6----|
|-7---7---7---7-----6-7-----9-7-----------7---7-7-6-----9---------9--|
|---------------7-9-------7-----------------7-------9-7--------------|


  Q Q Q Q Q Q E E E E Q Q E E E E Q Q E E E E Q Q E E E E Q Q E E
|-----------------9------------------------------------------------|
|---9-------9-7-7---7---9-----------9-------6-7---7-7-6------------|
|-7-----9-7-----------7---7-7-6---7---7-7-9-----7-------9-7---7-7--|
|-----7-------------------------9---------------------------7------|


  E E Q Q E E E E Q Q E E E E Q Q Q Q E E E E S E E E Q Q S E E E E
|---------------------------------------------9-9-9-8-7---9-9-9-8-7---|
|---6-7---7-7-6---------------------9-------------------9-------------|
|-9-----7-------9-7---7-7-6-----9-7-------9---------------------------|
|-------------------7-------9-7-------7-7---7-------------------------|


  E S S Q
|-7----------|
|---9-7------|
|-------9----|
|------------| 

DancingDog :)
Добавлено: 23.01.2014
Другие материалы по этой песне:

Страница создана 28.02.2012
http://primanota.ru/john-fogerty/big-train-from-memphis-chords.htm
Привет, Гость.
Предлагаем пройти революционный курс по гитаре.
Подарок от PrimaNota.Ru, забирай!