PrimaNota.ru - самый крупный в мире бесплатный архив песенных текстов, аккордов, табулатур и нот


John Farnham - All Our Sons And Daughters - аккорды и текст, таба, видео

Регистрация Запомнить меня
Войти через:  Facebook Google Twitter Vk Yandex Mail.ru

John Farnham - All Our Sons And Daughters - аккорды и текст, таба, видео

Печатать
Просмотров: 179
All Our Sons And Daughters
John Farnham
Tim Norton
Monday, 23 sep 2002-09-23

Artist:	John Farnham:	"All our sons and daughters"
Album:	Chain Reaction

I got this tab by copying Jack Jones' chords during the 1991 'Chain 
Reaction' concert in Melbourne. I've watched the concert over and over again 
to make sure I got it right.

This is the intro. Use downstrokes, and play it loud, with a bit of 
distortion.

Intro:
E|----------------------------|-----------------------------|
B|--7-7----5-5----4-4----7----|---7-7----5-5----4-----------|
G|--6-6----4-4----4-4----6----|---6-6----4-4----4-----------|
D|--4-4----2-2----2-2----4----|---4-4----2-2----2----4------|2 times
A|--4-4----2-2----2-2----4----|---4-4----2-2----2----2-4----|
E|----------------------------|------------------------2----|

E|---------------------------|------------------------------|
B|--7-7----5----4--------4---|----7-7----5----4--------4----|
G|--6-6----4----4--------4---|----6-6----4----4--------4----|
D|--4-4----2----2--------2---|----4-4----2----2--------2----|
A|--4-4----2----2-4----4-2---|----4-4----2----2-4----4-2----|
E|----------------2----2-----|------------------2----2------|


Transcribed by Tim Norton. Best of luck.
large_underpants@hotmail.com



     
Добавлено: 28.09.2013
Другие материалы по этой песне:
  • Аккорды и текст

Страница создана 04.03.2012
http://primanota.ru/john-farnham/all-our-sons-and-daughters-chords.htm
Привет, Гость.
Предлагаем пройти революционный курс по гитаре.
Подарок от PrimaNota.Ru, забирай!