PrimaNota.ru - самый крупный в мире бесплатный архив песенных текстов, аккордов, табулатур и нот


John Fahey - Special Rider Blues - таба, видео

Регистрация Запомнить меня
Войти через:  Facebook Google Twitter Vk Yandex Mail.ru

John Fahey - Special Rider Blues - таба, видео

Печатать
Просмотров: 112
Song: Special Rider Blues 
Artist: John Fahey
Album: America
Tabbed by: Kris Pender
Open G Tuning

d|--------------------0----------|--------------------0----------|
B|--------0---------------1p0----|--------0---------------1p0----|
G|--------3b--0----------------0-|--------3b--0----------------0-|
D|-----0------------------0------|-----0------------------0------|
G|0------------------------------|0------------------------------|
D|----------------3--------------|----------------3--------------|

d|--------------------0----------|--------------------0---0h2-0h2|
B|--------0---------------1p0----|--------0-----------0---0---0--|
G|--------3b--0----------------0-|--------3b--0-------0----------|
D|-----0------------------0------|-----0-------------------------|
G|0------------------------------|0---------------0--------------|
D|----------------3--------------|-------------------------------|

d|/5---5--5---5--5---/8------0--|----5--5--------3b--0-----------|
B|/3---3--3---3--3--------------|----3--3--------1b--------------|
G|----------0-------------------|-------------4----------3b---0--|
D|----------------------8b9-----|----------5---------------------|
G|------------------------------|0-------------------------------|
D|------------------------------|--------------------------------|

d|--------------------0----------|--------------------0---0h2-0h2|
B|--------0---------------1p0----|--------0-----------0---0---0--|
G|--------3b--0----------------0-|--------3b--0-------0----------|
D|-----0------------------0------|-----0-------------------------|
G|0------------------------------|0---------------0--------------|
D|----------------3--------------|-------------------------------|

d|/5---5--5---5--5---/8------0--|----5--5--------3b--0-----------|
B|/3---3--3---3--3--------------|----3--3--------1b--------------|
G|----------0-------------------|-------------4----------3b---0--|
D|----------------------8b9-----|----------5---------------------|
G|------------------------------|0-------------------------------|
D|------------------------------|--------------------------------|

d|--------------------0----------|----------------------------0--|
B|--------0---------------1p0----|--------0-----------0-0--1-----|
G|--------3b--0----------------0-|--------3b--0-------0-0--0-----|
D|-----0------------------0------|-----0-------------------------|
G|0------------------------------|0---------------0---0-0-----0--|
D|----------------3--------------|-------------------------------|

d|0-----0-0-----0-3-----0------5-|5-----5-5-----0-b3---0---------|
b|----1-------1----------------3-|3-----3-3-----0-0--------------|
G|-----------------------------4-|----4-------4-----------b3---0-|
D|-------------------------------|-------------------------------|
G|0-----0-0-----0-0-----0-0------|-------------------------------|
D|-------------------------------|-------------------------------|

d|--------------------0----------|--------------------0---0h2-0h2|
B|--------0---------------1p0----|--------0-----------0---0---0--|
G|--------3b--0----------------0-|--------3b--0-------0----------|
D|-----0------------------0------|-----0-------------------------|
G|0------------------------------|0---------------0--------------|
D|----------------3--------------|-------------------------------|

d|/5---5--5---5--5---/8------0--|----5--5--------3b--0-----------|
B|/3---3--3---3--3--------------|----3--3--------1b--------------|
G|----------0-------------------|-------------4----------3b---0--|
D|----------------------8b9-----|----------5---------------------|
G|------------------------------|0-------------------------------|
D|------------------------------|--------------------------------|

d|--------------------0----------|--------------------0---0h2-0h2|
B|--------0---------------1p0----|--------0-----------0---0---0--|
G|--------3b--0----------------0-|--------3b--0-------0----------|
D|-----0------------------0------|-----0-------------------------|
G|0------------------------------|0---------------0--------------|
D|----------------3--------------|-------------------------------|

d|/5---5--5---5--5---/8------0--|----5--5--------3b--0-----------|
B|/3---3--3---3--3--------------|----3--3--------1b--------------|
G|----------0-------------------|-------------4----------3b---0--|
D|----------------------8b9-----|----------5---------------------|
G|------------------------------|0-------------------------------|
D|------------------------------|--------------------------------|

d|--------------------0----------|----------------------------0--|
B|--------0---------------1p0----|--------0-----------0-0--1-----|
G|--------3b--0----------------0-|--------3b--0-------0-0--0-----|
D|-----0------------------0------|-----0-------------------------|
G|0------------------------------|0---------------0---0-0-----0--|
D|----------------3--------------|-------------------------------|

d|0-----0-0-----0-3-----0------5-|5-----5-5-----0-b3---0---------|
B|----1-------1----------------3-|3-----3-3-----0-0--------------|
G|-----------------------------4-|----4-------4-----------b3---0-|
D|-------------------------------|-------------------------------|
G|0-----0-0-----0-0-----0-0------|-------------------------------|
D|-------------------------------|-------------------------------|

d|--------------------0----------|-----------------------------12|
B|--------0---------------1p0----|--------0--------------------12|
G|--------3b--0----------------0-|--------3b--0------------------|
D|-----0------------------0------|-----0-------------------------|
G|0------------------------------|0---------------0-------0------|
D|----------------3--------------|-------------------------------|

d|12---12-12---12-10---10-10-----|8-----8-----8---5----5------/12|
B|8----8--8-------8----8--8------|6-----6-----6---3----3------/8-|
G|----0-------0----------------0-|----------------0-------0------|
D|-------------------------------|-------------------------------|
G|0---------------0--------------|-------------------------------|
D|-------------------------------|-------------------------------|

d|12---12-12---12-10---10-10-----|8-----8-----8---5----5-4h5-----|
B|8----8--8-------8----8--8------|6-----6-----6---3----3-3----4--|
G|----0-------0----------------0-|----------------0--------------|
D|-------------------------------|-------------------------------|
G|0---------------0--------------|-------------------------------|
D|-------------------------------|-------------------------------|

d|-----5-5-----5-5---8-p7--5-----|------3-3-----3-3--------------|
b|-----5-----5---5-------------3-|------3-3--3--3-3----3---------|
G|-----5---------5-------------3-|------3-3-----3-3----3--3b--0--|
D|-------------------------------|-------------------------------|
G|5----5-5-----5-5---------------|3-----3-3-----3-3--------------|
D|-------------------------------|-------------------------------|

d|--------------------0----------|----------------------------0--|
B|--------0---------------1p0----|--------0-----------0-0--1-----|
G|--------3b--0----------------0-|--------3b--0-------0-0--0-----|
D|-----0------------------0------|-----0-------------------------|
G|0------------------------------|0---------------0---0-0-----0--|
D|----------------3--------------|-------------------------------|

d|0-----0-0-----2h3-----0------5-|5-----5-5-----0-b3---0---------|
B|----1-------1----------------3-|3-----3-3-----0-0--------------|
G|-----------------------------4-|----4-------4-----------b3--0--|
D|-------------------------------|-------------------------------|
G|0-----0-0-----0-0-----0-0------|-------------------------------|
D|-------------------------------|-------------------------------|

d|--------------------0----------|--------------------0---0h2-0h2|
B|--------0---------------1p0----|--------0-----------0---0---0--|
G|--------3b--0----------------0-|--------3b--0-------0----------|
D|-----0------------------0------|-----0-------------------------|
G|0------------------------------|0---------------0--------------|
D|----------------3--------------|-------------------------------|

d|/5---5--5---5--5---/8------0--|----5--5--------3b--0-----------|
B|/3---3--3---3--3--------------|----3--3--------1b--------------|
G|----------0-------------------|-------------4----------3b---0--|
D|----------------------8b9-----|----------5---------------------|
G|------------------------------|0-------------------------------|
D|------------------------------|--------------------------------|

d|--------------------0----------|--------------------0---0h2-0h2|
B|--------0---------------1p0----|--------0-----------0---0---0--|
G|--------3b--0----------------0-|--------3b--0-------0----------|
D|-----0------------------0------|-----0-------------------------|
G|0------------------------------|0---------------0--------------|
D|----------------3--------------|-------------------------------|

d|/5---5--5---5--5---/8------0--|----5--5--------3b--0-----------|
B|/3---3--3---3--3--------------|----3--3--------1b--------------|
G|----------0-------------------|-------------4----------3b---0--|
D|----------------------8b9-----|----------5---------------------|
G|------------------------------|0-------------------------------|
D|------------------------------|--------------------------------|

d|--------------------0----------|----------------------------0--|
B|--------0---------------1p0----|--------0-----------0-0--1-----|
G|--------3b--0----------------0-|--------3b--0-------0-0--0-----|
D|-----0------------------0------|-----0-------------------------|
G|0------------------------------|0---------------0---0-0-----0--|
D|----------------3--------------|-------------------------------|

d|0-----0-0-----0-3-----0------5-|5-----5-5-----0-b3---0---------|
B|----1-------1----------------3-|3-----3-3-----0-0--------------|
G|-----------------------------4-|----4-------4-----------b3---0-|
D|-------------------------------|-------------------------------|
G|0-----0-0-----0-0-----0-0------|-------------------------------|
D|-------------------------------|-------------------------------|

d|--------------------0----------|--------------------0----------|
B|--------0---------------1p0----|--------0---------------1p0----|
G|--------3b--0----------------0-|--------3b--0----------------0-|
D|-----0------------------0------|-----0------------------0------|
G|0------------------------------|0------------------------------|
D|----------------3--------------|----------------3--------------|

d|--------------------0----------|-----------5--2----------------|
B|--------0---------------1p0----|----------------2------------2-|
G|--------3b--0----------------0-|-----------2------2--------2---|
D|-----0------------------0------|--------------------2----2-----|
G|0------------------------------|0---1---2--------------2-------|
D|----------------3--------------|-------------------------------|

d|5------5-----------------------|
B|2------2-----------------------|
G|2------2-----------------------|
D|2------2-----------------------|
G|2------2-----------------------|
D|-------------------------------|
Добавлено: 22.06.2012
Другие материалы по этой песне:
  • Аккорды и текст

Страница создана 22.06.2012
http://primanota.ru/john-fahey/special-rider-blues-chords.htm
Привет, Гость.
Предлагаем пройти революционный курс по гитаре.
Подарок от PrimaNota.Ru, забирай!