PrimaNota.ru - самый крупный в мире бесплатный архив песенных текстов, аккордов, табулатур и нот


John Fahey - In The Bleak Midwinter - таба, видео

Регистрация Запомнить меня
Войти через:  Facebook Google Twitter Vk Yandex Mail.ru

John Fahey - In The Bleak Midwinter - таба, видео

Печатать
Просмотров: 126
IN THE BLEAK MIDWINTER, John Fahey (Christmas Guitar Vol. 1)
Transcribed by Elaine Jennings

I'm not exactly sure what that F chord is - the 1x323x one. If anyone would care
to enlighten me, or wants to point out mistakes etc, email black_jack_davy@hotmail.com.

C                  Amin            F           G

-0---0-1-3---0---|---------------|-----0-----|----------------|
-1---1-1-1---1---|-3-----1-------|-3-----3---|-3-----3-3------|
-0-------0-0---0-|-------2-----2-|-2-------2-|-----0-----0--0-|
---2-------2---2-|---2-------2---|-3-3---3---|---0---------0--|
-3-------3-------|-0-----0-0-----|-----------|-------------0--|
-----------------|---------------|-1-------1-|-3-------3------|

C                  Amin         F     G     C
-0---0-1-3---0---|------------|-----0-----|-------------|-----|
-1---1-1-1---1---|-3----1-----|-3-----3---|-1-------1---|-----|
-0-------0-0---0-|----2-------|-2-------0-|-----0-----0-|-----|
---2-------2---2-|---2----2p0-|-3-3-----0-|---2-------0-|-----|
-3-------3-------|-0----0-----|-----------|-3-----3-----|-----|
-----------------|------------|-1-----3---|-------------|-----|

F            Amin   C               G
-1---0-1-3-|-5----0---|-0h3-0-----|-------3---|---------------|
-1---1-1-3-|-5----1---|-------3-1-|-----------|---------------|
-2---------|-5------2-|-----------|-4---0-----|---------------|
---3-------|---7--2---|-----2---2-|---0-----0-|---------------|
-----3-----|------3---|---3---3---|-----------|---------------|
-1-----1-3-|-5--------|-----------|-3---------|---------------|

C               Amin           F      G      C
-0---1-3---0---|-------------|-------------|--------------|---|
-1-------1---1-|-3-----1-----|-3-----3---1-|-1-----1-1----|---|
-0-------------|-2---2-------|-2-------0---|-0---0--------|---|
---2-------2---|-2-2-----2p0-|-3-3/5-5-----|-2-2-------2--|---|
-3-----3-------|-0-----0-----|-------------|-3------------|---|
---------------|-------------|-1-----3-----|---------3----|---|

The rest is just the same over again, but with a little more twiddling.
Добавлено: 17.07.2012
Другие материалы по этой песне:
  • Аккорды и текст

Страница создана 17.07.2012
http://primanota.ru/john-fahey/in-the-bleak-midwinter-chords.htm
Привет, Гость.
Предлагаем пройти революционный курс по гитаре.
Подарок от PrimaNota.Ru, забирай!