PrimaNota.ru - самый крупный в мире бесплатный архив песенных текстов, аккордов, табулатур и нот


John Fahey - Hawaiian Two Step - таба, видео

Регистрация Запомнить меня
Войти через:  Facebook Google Twitter Vk Yandex Mail.ru

John Fahey - Hawaiian Two Step - таба, видео

Печатать
Просмотров: 100
-------------------------------------------------------------------------------
                            Hawaiian Two Step - John Fahey
-------------------------------------------------------------------------------
Tabbed by:C McGovern
Email:mcgovern56@hotmail.com

Tuning:Open G - DGDGBD

The notes played on the 4th and 5th string keep with the bum-chick style of playing


THIS SONG IS PLAYED IN OPEN G NOT STANDARD TUNING!!!


  Part 1
e|-------------------5/9--9-------5-----0------------------------------------|
B|---------------------------------------------------------------------------|
G|---------------------------------------------------------------------------|
D|------0-------0------0------0------0-----0---------------------------------|
A|-0--------0------0-------0------0-----0------------------------------------|
E|---------------------------------------------------------------------------|

e|-5-----7---5------5-------0------------------------------------------------|
B|---5-----------5-------0---------------------------------------------------|
G|---------------------------------------------------------------------------|
D|-----5-------5------5--------0---------------------------------------------|
A|-5-------5------5---------0------------------------------------------------|
E|---------------------------------------------------------------------------|

e|---5/9--9------5------0----------------------------------------------------|
B|---------------------------------------------------------------------------|
G|---------------------------------------------------------------------------|
D|------0-----0------0-------------------------------------------------------|
A|-0-------0-----0------0----------------------------------------------------|
E|---------------------------------------------------------------------------|

e|-7-----9---7-------7-------0-----------------------------------------------|
B|---7-----------7--------0--------------------------------------------------|
G|---------------------------------------------------------------------------|
D|-----7-------7-------7--------0--------------------------------------------|
A|-7-------7-------7---------0-----------------------------------------------|
E|---------------------------------------------------------------------------|

e|---5/9--9------5------0----------------------------------------------------|
B|---------------------------------------------------------------------------|
G|---------------------------------------------------------------------------|
D|------0-----0------0-------------------------------------------------------|
A|-0-------0-----0------0----------------------------------------------------|
E|---------------------------------------------------------------------------|

e|-5-----7---5------5-------0------------------------------------------------|
B|---5-----------5-------0---------------------------------------------------|
G|---------------------------------------------------------------------------|
D|-----5-------5------5--------0---------------------------------------------|
A|-5-------5------5---------0------------------------------------------------|
E|---------------------------------------------------------------------------|


e|---5/9----9-------7------7----9----5----2----------------------------------|
B|---------------------7---------------------3h0-----------------------------|
G|-------------------------------------------------0-------------------------|
D|-------0-----0---------7--------7-----0--------0------0-----0--------------|
A|-0--------0-------7--------7-------0-------0-------0-----0-----------------|
E|---------------------------------------------------------------------------|

 
 Part 2
e|--12----12-----14--12-------12-----12--------------------------------------|
B|-----------12----------11b------12-----------------------------------------|
G|---------------------------------------------------------------------------|
D|-----0-------0-------0--------0--------0-----------------------------------|
A|-0------0--------0--------0--------0---------------------------------------|
E|---------------------------------------------------------------------------|

e|-5-----7---5------5-------0------------------------------------------------|
B|---5-----------5-------0---------------------------------------------------|
G|---------------------------------------------------------------------------|
D|-----5-------5------5--------0---------------------------------------------|
A|-5-------5------5---------0------------------------------------------------|
E|---------------------------------------------------------------------------|

e|-12------14--12---------12------12-----------------------------------------|
B|----12-------------11b-------12--------------------------------------------|
G|---------------------------------------------------------------------------|
D|-------0--------0----------0-------0---------------------------------------|
A|-0----------0----------0--------0------------------------------------------|
E|---------------------------------------------------------------------------|


e|-7-----9---7-------7-------0-----------------------------------------------|
B|---7-----------7--------0--------------------------------------------------|
G|---------------------------------------------------------------------------|
D|-----7-------7-------7--------0--------------------------------------------|
A|-7-------7-------7---------0-----------------------------------------------|
E|---------------------------------------------------------------------------|

e|-12------14--12---------12------12-----------------------------------------|
B|----12-------------11b-------12--------------------------------------------|
G|---------------------------------------------------------------------------|
D|-------0--------0----------0-------0---------------------------------------|
A|-0----------0----------0--------0------------------------------------------|
E|---------------------------------------------------------------------------|

e|-5-----7---5------5-------0------------------------------------------------|
B|---5-----------5-------0---------------------------------------------------|
G|---------------------------------------------------------------------------|
D|-----5-------5------5--------0---------------------------------------------|
A|-5-------5------5---------0------------------------------------------------|
E|---------------------------------------------------------------------------|

e|---5/9----9-------7------7----9----5----2----------------------------------|
B|---------------------7---------------------3h0-----------------------------|
G|-------------------------------------------------0-------------------------|
D|-------0-----0---------7--------7-----0--------0------0-----0--------------|
A|-0--------0-------7--------7-------0-------0-------0-----0-----------------|
E|---------------------------------------------------------------------------|


Part 3
e|-----12----------10--------9-----0-----------------------------------------|
B|-12-----12---10-----10---8---9---0-----------------------------------------|
G|---------------------------------------------------------------------------|
D|--------------------------------------0------------------------------------|
A|-----------------------------------0---------------------------------------|
E|---------------------------------------------------------------------------|


e|-5-----7---5------5-------0------------------------------------------------|
B|---5-----------5-------0---------------------------------------------------|
G|---------------------------------------------------------------------------|
D|-----5-------5------5--------0---------------------------------------------|
A|-5-------5------5---------0------------------------------------------------|
E|---------------------------------------------------------------------------|


e|-----12----------10--------9-----0-----------------------------------------|
B|-12-----12---10-----10---8---9---0-----------------------------------------|
G|---------------------------------------------------------------------------|
D|--------------------------------------0------------------------------------|
A|-----------------------------------0---------------------------------------|
E|---------------------------------------------------------------------------|


e|-7-----9---7-------7-------0-----------------------------------------------|
B|---7-----------7--------0--------------------------------------------------|
G|---------------------------------------------------------------------------|
D|-----7-------7-------7--------0--------------------------------------------|
A|-7-------7-------7---------0-----------------------------------------------|
E|---------------------------------------------------------------------------|

e|-----12----------10--------9-----0-----------------------------------------|
B|-12-----12---10-----10---8---9---0-----------------------------------------|
G|---------------------------------------------------------------------------|
D|--------------------------------------0------------------------------------|
A|-----------------------------------0---------------------------------------|
E|---------------------------------------------------------------------------|

e|-5-----7---5------5-------0------------------------------------------------|
B|---5-----------5-------0---------------------------------------------------|
G|---------------------------------------------------------------------------|
D|-----5-------5------5--------0---------------------------------------------|
A|-5-------5------5---------0------------------------------------------------|
E|---------------------------------------------------------------------------|


e|---5/9----9-------7------7----9----5----2----------------------------------|
B|---------------------7---------------------3h0-----------------------------|
G|-------------------------------------------------0-------------------------|
D|-------0-----0---------7--------7-----0--------0------0-----0--------------|
A|-0--------0-------7--------7-------0-------0-------0-----0-----------------|
E|---------------------------------------------------------------------------|






Добавлено: 08.06.2012
Другие материалы по этой песне:
  • Аккорды и текст

Страница создана 08.06.2012
http://primanota.ru/john-fahey/hawaiian-two-step-chords.htm
Привет, Гость.
Предлагаем пройти революционный курс по гитаре.
Подарок от PrimaNota.Ru, забирай!