PrimaNota.ru - самый крупный в мире бесплатный архив песенных текстов, аккордов, табулатур и нот


John Edmondson - Anasazi - бас-таба, видео

Регистрация Запомнить меня
Войти через:  Facebook Google Twitter Vk Yandex Mail.ru

John Edmondson - Anasazi - бас-таба, видео

Печатать
Просмотров: 97
Уроки эстрадного вокала в Санкт-Петербурге
-------------------------------------------------------------------------------
                            Anasazi - John Edmondson
-------------------------------------------------------------------------------
Tabbed by: Sarah Becker


Tuning: Standard (E.A.D.G)

G|-0~~~~~~~--------0~~~~~~~--------0~~~~~~~--------0~~~~~~~------------------|
D|---------0~~~0~~~--------0~~~0~~~--------0~~~0~~~--------0~~~0~~~----------|
A|---------------------------------------------------------------------------|
E|---------------------------------------------------------------------------|
   1 + 2 + 3 + 4 + 1 + 2 + 3 + 4 + 1 + 2 + 3 + 4 + 1 + 2 + 3 + 4 +

G|-0~~~~~~~--------0~~~~~~~----------------0~~~0~~~--------0~~~~~~~----------|
D|---------0~~~0~~~--------0~~~0~~~------------------------------------------|
A|---------------------------------3~~~~~~~--------3~~~~~~~------------------|
E|---------------------------------------------------------------------------|
   1 + 2 + 3 + 4 + 1 + 2 + 3 + 4 + 1 + 2 + 3 + 4 + 1 + 2 + 3 + 4 +

G|-0~~~~~~~--------0~~~~~~~--------0~~~~~~~--------0~~~~~~~------------------|
D|---------0~~~0~~~--------0~~~0~~~--------0~~~0~~~--------0~~~0~~~----------|
A|---------------------------------------------------------------------------|
E|---------------------------------------------------------------------------|
   1 + 2 + 3 + 4 + 1 + 2 + 3 + 4 + 1 + 2 + 3 + 4 + 1 + 2 + 3 + 4 +

G|-0~~~~~~~--------0~~~~~~~--------0~~~~~~~--------0~~~~~~~------------------|
D|---------0~~~0~~~--------0~~~0~~~--------0~~~0~~~--------0~~~0~~~----------|
A|---------------------------------------------------------------------------|
E|---------------------------------------------------------------------------|
   1 + 2 + 3 + 4 + 1 + 2 + 3 + 4 + 1 + 2 + 3 + 4 + 1 + 2 + 3 + 4 +

G|-0~~~~~~~--------0~~~~~~~--------------------------------------------------|
D|---------0~~~0~~~--------0~~~0~~~----------------3~~~~~~~3~~~3~~~----------|
A|---------------------------------3~~~~~~~3~~~~~~~--------------------------|
E|---------------------------------------------------------------------------|
   1 + 2 + 3 + 4 + 1 + 2 + 3 + 4 + 1 + 2 + 3 + 4 + 1 + 2 + 3 + 4 +

G|---------------------------------1~~~~~~~1~~~~~~~1~~~~~~~1~~~1~~~----------|
D|-----------------1~~~~~~~1~~~1~~~------------------------------------------|
A|-1~~~~~~~1~~~~~~~----------------------------------------------------------|
E|---------------------------------------------------------------------------|
   1 + 2 + 3 + 4 + 1 + 2 + 3 + 4 + 1 + 2 + 3 + 4 + 1 + 2 + 3 + 4 +

G|-0~~~~~~~--------0~~~~~~~~~~~~~~~------------------------------------------|
D|---------0~~~0~~~----------------------------------------3~~~3~~~----------|
A|---------------------------------------------------------------------------|
E|---------------------------------------------------------------------------|
   1 + 2 + 3 + 4 + 1 + 2 + 3 + 4 + 1 + 2 + 3 + 4 + 1 + 2 + 3 + 4 +

G|---------------------------------1~~~~~~~~~~~~~~~1~~~~~~~~~~~~~~~----------|
D|-------------------------1~~~1~~~------------------------------------------|
A|-1~~~~~~~~~~~~~~~----------------------------------------------------------|
E|---------------------------------------------------------------------------|
   1 + 2 + 3 + 4 + 1 + 2 + 3 + 4 + 1 + 2 + 3 + 4 + 1 + 2 + 3 + 4 +

G|-0~~~~~~~--------0~~~~~~~--------0~~~~~~~--------0~~~~~~~------------------|
D|---------0~~~0~~~--------0~~~0~~~--------0~~~0~~~--------0~~~0~~~----------|
A|---------------------------------------------------------------------------|
E|---------------------------------------------------------------------------|
   1 + 2 + 3 + 4 + 1 + 2 + 3 + 4 + 1 + 2 + 3 + 4 + 1 + 2 + 3 + 4 +

G|-0~~~~~~~--------0~~~~~~~--------0~~~~~~~--------0~~~~~~~------------------|
D|---------0~~~0~~~--------0~~~0~~~--------0~~~0~~~--------0~~~0~~~----------|
A|---------------------------------------------------------------------------|
E|---------------------------------------------------------------------------|
   1 + 2 + 3 + 4 + 1 + 2 + 3 + 4 + 1 + 2 + 3 + 4 + 1 + 2 + 3 + 4 +

G|-0~~~~~~~--------0~~~~~~~--------0~~~~~~~--------0~~~~~~~------------------|
D|---------0~~~0~~~--------0~~~0~~~--------0~~~0~~~--------0~~~0~~~----------|
A|---------------------------------------------------------------------------|
E|---------------------------------------------------------------------------|
   1 + 2 + 3 + 4 + 1 + 2 + 3 + 4 + 1 + 2 + 3 + 4 + 1 + 2 + 3 + 4 +

G|-0~~~~~~~--------0~~~~~~~----------------0~~~0~~~--------0~~~~~~~----------|
D|---------0~~~0~~~--------0~~~0~~~------------------------------------------|
A|---------------------------------3~~~~~~~--------3~~~~~~~------------------|
E|---------------------------------------------------------------------------|
   1 + 2 + 3 + 4 + 1 + 2 + 3 + 4 + 1 + 2 + 3 + 4 + 1 + 2 + 3 + 4 +

G|-0~~~~~~~--------0~~~~~~~--------0~~~~~~~--------0~~~~~~~------------------|
D|---------0~~~0~~~--------0~~~0~~~--------0~~~0~~~--------0~~~0~~~----------|
A|---------------------------------------------------------------------------|
E|---------------------------------------------------------------------------|
   1 + 2 + 3 + 4 + 1 + 2 + 3 + 4 + 1 + 2 + 3 + 4 + 1 + 2 + 3 + 4 +

G|-0~~~~~~~--------0~~~~~~~--------0~~~~~~~--------0~~~~~~~~~~~~~~~----------|
D|---------0~~~0~~~--------0~~~0~~~--------0~~~~~~~--------------------------|
A|---------------------------------------------------------------------------|
E|---------------------------------------------------------------------------|
   1 + 2 + 3 + 4 + 1 + 2 + 3 + 4 + 1 + 2 + 3 + 4 + 1 + 2 + 3 + 4 +


| /  slide up
| \  slide down
| h  hammer-on
| p  pull-off
| ~  vibrato
| +  harmonic
| x  Mute note
===============================================================================
Добавлено: 07.08.2015
Другие материалы по этой песне:
  • Аккорды и текст

Страница создана 07.08.2015
http://primanota.ru/john-edmondson/anasazi-chords.htm
Привет, Гость.
Предлагаем пройти революционный курс по гитаре.
Подарок от PrimaNota.Ru, забирай!