PrimaNota.ru - самый крупный в мире бесплатный архив песенных текстов, аккордов, табулатур и нот


John Dowland - What If I Never Speed - таба, видео

Регистрация Запомнить меня
Войти через:  Facebook Google Twitter Vk Yandex Mail.ru

John Dowland - What If I Never Speed - таба, видео

Печатать
Просмотров: 171
John Dowland - What If I Never Speed?
from "The Third Booke Of Songs, IX" - 1603

TablEdited by Hamilcar
Tuning : E A D F# B E   -   Time Signature: 4/4 

 |       |       |       |        |       |       |       |        
|5-------5---4---2-------4-------|5-----------------------4---2---|
|7-------7---5---3-------3-------|2-----------------------5---2---|
|0-------0-----------------------|3---------------------------0---|
|----------------0---------------|------------------------2-------|
|------------4-----------2-------|0-------------------------------|
|--------------------------------|--------------------------------|

 |       |       |       |        |       |       |       |        
|4-------5-----------4---2-------|1-----------------------2-------|
|5---------------2---------------|2-----------------------2-------|
|----------------3---------------|2-----------------------0-------|
|2-------2-------4---------------|----------------------------2---|
|--------4-----------------------|4-------------------------------|
|----------------------------2---|--------------------------------|

 |       |       |       |        |       |       |       |        
|2-------0-------2-------0-------|0-----------------------0-------|
|0-----------------------0-------|2-----------------------0---2---|
|----3---3-----------3---2-------|3-----------------------2---0---|
|0-----------------------2-------|--------------------------------|
|--------4-------2---------------|0-------------------------------|
|--------------------------------|------------------------0---2---|

 |       |       |       |        |       |       |       |        
|--------------------------------|-------------------------------||
|2-----------0-----------2---0---|------------------------------°||
|2-------3-----------2-----------|4------------------------------||
|3-------4---------------3-------|4------------------------------||
|4-------5-------4---------------|4-----------------------------°||
|--------------------------------|2------------------------------||

 |       |       |       |        |       |       |       |        
|--------------------------------|--------------------------------|
|2---------------2-------2-------|2---------------2---------------|
|2---------------3-------3-------|2---------------2---------------|
|3-----------------------4-------|3-------------------------------|
|4---------------0---------------|4---------------4-----------4---|
|------------------------2-------|--------------------------------|

 |       |       |       |        |       |       |       |        
|--------2---------------2---0---|----------------0---------------|
|0-------------------2-----------|4---2---4-------0---------------|
|0---------------0---------------|5-------5-------2---------------|
|1-----------2-------------------|--------4-------2---------------|
|--------------------------------|--------2-----------------------|
|--------------------------------|--------------------------------|

 |       |       |       |        |       |       |       |        
|--------------------------------|----------------1---------------|
|--------2-------3---------------|--------4-------2---------------|
|--------3-------3---------------|--------5-------2---------------|
|--------2-------4---------------|--------4-----------------------|
|--------0-------5---------------|--------2-------4---------------|
|--------------------------------|--------------------------------|

 |       |       |       |        |       |       |       |        
|--------2-----------------------|--------0-----------------------|
|--------2---------------4-------|--------0---------------2---0---|
|--------3---------------5-------|--------2-----------------------|
|------------------------4-------|------------------------2-------|
|------------------------2-------|------------------------0-------|
|--------2-----------------------|--------0-----------------------|

 |       |       |       |        |       |       |       |        
|----------------------------2---|----2---1-------2---------------|
|--------2-----------2---3-------|2-----------0---2---------------|
|3---5---------------3---2---0---|----------------4---------------|
|4-------------------------------|--------------------------------|
|----------------0---------------|4-------------------------------|
|2-----------4-------------------|----------------2---------------|

 |       |       |       |        |       |       |       |        
|----------------0---------------|--------------------------------|
|4---------------0---------------|2-----------------------2-------|
|5---------------2---------------|3---------------3---5-----------|
|4-------------------------------|2---------------4---------------|
|2-------------------------------|0-------------------------------|
|----------------0---------------|----------------2-----------4---|

 |       |       |       |        |       |       |       |        
|------------2-------2---1-------|2------------------------------||
|----2---3-------2-----------0---|2------------------------------||
|----3---2---0---2---------------|4------------------------------||
|--------------------------------|-------------------------------||
|0-------0-------4---------------|-------------------------------||
|--------------------------------|2------------------------------||
Добавлено: 11.07.2012
Вам также может быть интересно:
Другие материалы по этой песне:
  • Аккорды и текст

Страница создана 11.07.2012
http://primanota.ru/john-dowland/what-if-i-never-speed-chords.htm
Привет, Гость.
Предлагаем пройти революционный курс по гитаре.
Подарок от PrimaNota.Ru, забирай!