PrimaNota.ru - самый крупный в мире бесплатный архив песенных текстов, аккордов, табулатур и нот


John Dowland - Phantasia In Em - таба, видео

Регистрация Запомнить меня
Войти через:  Facebook Google Twitter Vk Yandex Mail.ru

John Dowland - Phantasia In Em - таба, видео

Печатать
Просмотров: 117
Phantasia - John Dowland (1561-1626)

TablEdited by Hamilcar

TUNING : E A D F# B E      Time Signature : 4/4 

  |   |   |   |      |   |   |   |      |   |   |   |      |   |   |   |
|-0----------------|------------------|------------------|------------------|
|-0----------------|-3----------------|-0----------------|-0----------------|
|-1----------------|-0----------------|-1----------------|-0----------------|
|-2----------------|-0----------------|-0----------------|-0----------------|
|------------------|-2----------------|-------------0----|-2----------------|
|------------------|------------------|-3----------------|------------------|

  |   |   |   |      |   |   |   |      |   |   |   |      |   |   |   |
|---------0-2-3-5--|-7----------------|-5---2---3--------|-2-------0--------|
|-0----------------|---------0--------|-----3---0---2----|-3---3------------|
|-1----------------|------------------|-3---3---1--------|-3---0---3--------|
|-2----------------|------------------|-4---0---2--------|-0----------------|
|------------------|------------------|------------------|-----2---3---0----|
|-0----------------|------------------|------------------|------------------|

  |   |   |   |      |   |   |   |      |   |   |   |      |   |   |   |
|------------------|------------------|------------------|-----------0-2023-|
|-3-------2--------|-0----------------|-0-------0---2----|-3---0-2-3--------|
|-0---2---3---3----|-1-------3--------|-1---3---1--------|-0----------------|
|-0-----------0----|-------------1----|-2----------------|------------------|
|-2-------0--------|------------------|------------------|-2----------------|
|-------------2----|-3---0---2--------|-0----------------|------------------|

                                        CII.............
  |   |   |   |      |   |   |   |      |   |   |   |      |   |   |   |
|-2----------------|-----2---0--------|------------------|-0----------------|
|-0----------------|-0----------------|-----4-2-5-4-5424-|-0---3-2-0---0----|
|-0----------------|-1---3---1--------|-5----------------|-2---------3--320-|
|------------------|-0-------2--------|-4----------------|------------------|
|-2----------------|-------------0----|-2----------------|------------------|
|------------------|-3----------------|------------------|------------------|

  |   |   |   |
|-0---------------||
|-0---------------||
|-2---------------||
|-----------------||
|-----------------||
|-0---------------||
Добавлено: 23.04.2012
Другие материалы по этой песне:
  • Аккорды и текст

Страница создана 23.04.2012
http://primanota.ru/john-dowland/phantasia-in-em-chords.htm
Привет, Гость.
Предлагаем пройти революционный курс по гитаре.
Подарок от PrimaNota.Ru, забирай!