PrimaNota.ru - самый крупный в мире бесплатный архив песенных текстов, аккордов, табулатур и нот


John Dowland - Galliard In E - таба, видео

Регистрация Запомнить меня
Войти через:  Facebook Google Twitter Vk Yandex Mail.ru

John Dowland - Galliard In E - таба, видео

Печатать
Просмотров: 113
A Galliard
John Dowland.
from ?

TablEdited by Hamilcar
Tuning - E A D F# B E     Time Signature - 3/4

 |       |       |        |       |       |        |       |       |
|----------------0---2---|3---------------2-------|0-----------2---3---5---|
|1-----------3---1-------|0---------------0-------|0---------------0-------|
|3-------3-------3-------|------------------------|------------------------|
|2-----------------------|2---------------1-------|2-----------------------|
|0---------------0-------|----------------2-------|------------------------|
|------------------------|3-------0---------------|0-------0---------------|

 |       |       |        |       |       |        |       |       |
|2---------------3-------|5-----3-2---0-----------|----3-------0-------2---|
|0---------------0-------|----------------3---1---|0---------------1-------|
|----------------1-------|0-----------------------|1---------------3-------|
|--------1-------2-------|0-----------------------|------------------------|
|2-----------------------|------------3---2---0---|--------3-------0-------|
|------------------------|------------------------|3-----------------------|

 |       |       |        |       |       |        |       |       |
|------0-2---------------|0-----------------------|----0---5---3-2-0---0-2-|
|4-----------0-----2-4---|0-----------------------|1-----------------3-----|
|0-------------------5---|2-----------------------|3-----------------------|
|------------------------|--------2---------------|------------------------|
|----2-----------0---2---|------------------------|0---------------0-------|
|------------3-----------|0-----------------------|------------------------|

 |       |       |        |       |       |        |       |       |
|3---------------2-------|----0---7---5-3-2-3-0-2-|--------------------0---|
|0---------------0-------|0-----------------------|4-------0-------0-------|
|------------------------|------------------------|0---------------1-------|
|2---------------1-------|2-----------------------|------------------------|
|----------------2-------|------------------------|2-----------------------|
|3-------0---------------|3-------0---------------|----------------0-------|

 |       |       |        |       |       |        |       |       |
|5-----3-2-3-0-2---0-----|----3-----2-0-----0-2-0-|------0-2-3-2-0---0-----|
|----------------3---1-3-|0-----------------------|4-2-4-----------4---2-4-|
|0-----------------------|1-----------------------|0-----------------------|
|0-----------------------|------------------------|------------------------|
|------------3---2---0---|--------3-----2-0-------|2---------------0---2---|
|------------------------|3-----------------------|------------3-----------|

 |       |       |        |       |       |        |       |       |
|----0-----------0------||0-------3-------5-------|------3-2---0-----------|
|----0-----------0------||1-----------------------|3---------------3-------|
|----2-----------2------||1-----------------------|3---------------1-------|
|--------2--------------||------------------------|0-----------------------|
|-----------------------||3---------------0-------|------------3---2-------|
|0-----------0----------||------------------------|------------------------|

 |       |       |        |       |       |        |       |       |
|0-----------------------|------------3---2---0---|------------7---5---3---|
|--------1---------------|0-----------------------|4-----------------------|
|--------1-----1-0-3-1-0-|1-----------------------|5-----------------------|
|------------------------|------------------------|------------------------|
|3-------0---------------|----------------0-------|2---------------3-------|
|------------------------|3-----------------------|------------------------|

 |       |       |        |       |       |        |       |       |
|2-------5-------3-------|2-------0-----------0---|------------------------|
|3---------------3-------|----0---0---------0-----|----4-----------4-------|
|3-----------------------|------------3-1-3-----3-|----5-----------5-------|
|0-----------------------|0-----------------------|--------4---------------|
|------------0---2-------|--------3---------------|2-----------2-----------|
|------------------------|------------------------|------------------------|

 |       |       |        |       |       |        |       |       |
|0---0-2-3-0-2-3-5-3-2-0-|2-0-2-3-2-3-0-2---------|0-----------0---1-0-----|
|--3---------------------|----------------3-------|--------1-3---1-----3-1-|
|------------------------|------------------------|------------------------|
|------------------------|0-----------------------|------------------------|
|3---------------0-------|------------3---2-------|3-------0---------------|
|------------------------|------------------------|------------------------|

 |       |       |        |       |       |        |       |       |
|------------3---2-0-----|------------7---5-3-2-0-|2-----3-5-------3---2-0-|
|0-------------------4-2-|4-----------------------|3---------------3-------|
|1-----------------------|5-----------------------|------------------------|
|------------------------|------------------------|0-----------------------|
|----------------0-------|2---------------3-------|------------0---2-------|
|3-----------------------|------------------------|------------------------|

 |       |       |        |       |       |        |       |       |
|2---0-2-0-2-3-0-5-3-2-0-|------------2-3-2-------|------------3---2-------|
|--3-----0---------------|4-----2-4-5-------------|----0---3---0-----------|
|--------------------3---|5---5-------------------|----1---3---------------|
|0-----------------------|------------------------|------------2-------1---|
|--------3---------------|2-----------------------|------------------------|
|------------------------|------------------------|3-------2---0-----------|

 |       |       |        |       |       |        |       |       |
|0-----------------------|------------5-----0-3---|2-------0---------------|
|--------0---------------|----0---3-----------0---|----------0-----4-------|
|----1---0---------------|----1---3---------------|----3-------1---0-------|
|2-----------1---2-------|------------------------|1-------2---------------|
|------------------------|------------------------|----------------2-------|
|------------------------|3-------2-------0-------|------------------------|

 |       |       |        |       |       |        |       |       |
|----7---5---3-------2---|3-----------3---2---0---|0-----------------------|
|0-------5---3---1-------|----5---3---------------|----------5-4-2-4-5---4-|
|----------------3-------|5-----------5---3---1---|0-------------------3---|
|0-----------------------|5-----------------------|----2---4---------------|
|--------3---2---0-------|----------------0-------|3-------2---------------|
|3-----------------------|3-----------------------|------------------------|

 |       |       |
|----0-----------0------||
|----0-----------0------||
|----2-----------2------||
|--------2--------------||
|-----------------------||
|0-----------0----------||
Добавлено: 20.07.2012
Другие материалы по этой песне:
  • Аккорды и текст

Страница создана 20.07.2012
http://primanota.ru/john-dowland/galliard-in-e-chords.htm
Привет, Гость.
Предлагаем пройти революционный курс по гитаре.
Подарок от PrimaNota.Ru, забирай!