PrimaNota.ru - самый крупный в мире бесплатный архив песенных текстов, аккордов, табулатур и нот


John Dowland - Dowlands Galliard In B - таба, видео

Регистрация Запомнить меня
Войти через:  Facebook Google Twitter Vk Yandex Mail.ru

John Dowland - Dowlands Galliard In B - таба, видео

Печатать
Просмотров: 284
Уроки эстрадного вокала в Санкт-Петербурге
Dowland's Galliard - John Dowland (1561-1626)
from "Cambridge University Library, Ms.Dd.2.11"

TablEdited by Hamilcar

Tuning : E A D F# B E    Time Signature: 3/4 

 |       |       |        |       |       |        |       |       |        
|2-------2-------2-------|2-------0---------------|------------------------|
|0-------0-------0-------|0-----------3---2---0---|3-------2---------------|
|------------------------|------------------------|0-------5-------4-------|
|------------------------|------------------------|------------------------|
|2---------------2-------|2-----------------------|2-----------------------|
|------------------------|------------------------|--------2---------------|

 |       |       |        |       |       |        |       |       |        
|------------------------|2-------7---2---2---2---|2---0-2-3-2-3-2-3-2-0---|
|----0-----------0-------|0-----------------------|0---------------------3-|
|----0-----------0-------|0-----------------------|------------------------|
|--------1---------------|------------------------|------------------------|
|2-----------2---2-------|2-----------------------|2-----------------------|
|------------------------|------------------------|------------------------|

 |       |       |        |       |       |        |       |       |        
|0-----------------------|-----------------------||--------0---2-3-5---0---|
|--3-2-0-2-----------2---|0----------------------||2-----3-----------------|
|----------5-4-2-4-5---4-|0---3-1-3-1-0----------||3-----------------------|
|2-----------------------|--------------2-1------||------------------------|
|------------------------|2----------------------||0-----------------------|
|--------2---------------|-----------------------||------------------------|

 |       |       |        |       |       |        |       |       |        
|5-----------3---2-------|0-----------------------|------------------------|
|2---------------3-------|2-------3-------2---0---|----2-----------2-------|
|3---------------3-------|3-------0---------------|----4-----------4-------|
|----------------0-------|------------------------|--------4---------------|
|0-----------------------|0-------2---------------|------------------------|
|------------------------|------------------------|2-----------2-----------|

 |       |       |        |       |       |        |       |       |        
|------------------------|0---2-3-5-3-2-0-2---0-2-|0-----0---------------0-|
|2-0-----------0-2-0-2-3-|------------------3-----|--2-3---3-2-0-2-3-2-3---|
|----3-2-0-2-3-----------|------------------------|------------------------|
|------------------------|----------------0-------|------------------------|
|0-----------------------|0-----------------------|0-------2---------------|
|------------------------|------------------------|------------------------|

 |       |       |        |       |       |        |       |       |        
|2----------------------||5-----------3---2---0---|3-----------2---0-------|
|----5-3-5-3-2----------||------------------------|0-------------------3---|
|--------------5-4------||0-----------------------|------------------------|
|----------------4------||0---------------0-------|2-----------------------|
|-----------------------||------------------------|------------------------|
|2---------------2------||------------------------|----------------0-------|

 |       |       |        |       |       |        |       |       |        
|------------------------|--------------0-2-0-2-3-|5---2-3-5-3-2-0-2---0-2-|
|2---0---2---------------|0---0-2-3-2-3-----------|------------------3-----|
|--------4---5---5---4---|0-----------------------|------------------------|
|------------------------|------------------------|0---------------0-------|
|------------------------|2-----------------------|------------------------|
|--------2---------------|------------------------|------------------------|

 |       |       |        |       |       |        |       |       |        
|3---0-2-3-2-0---0-2-3-2-|0-----------------------|-----------------------||
|--------------3---------|--3-2-0-2-----------2---|0---------------0------||
|------------------------|----------5-4-2-4-5---4-|0---3-1-3-1-0---0------||
|------------------------|------------------------|--------------2-1------||
|------------------------|------------------------|2---------------2------||
|0-----------------------|--------2---------------|-----------------------||
Добавлено: 02.03.2012
Другие материалы по этой песне:
  • Аккорды и текст

Страница создана 02.03.2012
http://primanota.ru/john-dowland/dowlands-galliard-in-b-chords.htm
Привет, Гость.
Предлагаем пройти революционный курс по гитаре.
Подарок от PrimaNota.Ru, забирай!