PrimaNota.ru - самый крупный в мире бесплатный архив песенных текстов, аккордов, табулатур и нот


John Denver - Let It Be - аккорды и текст, видео

Регистрация Запомнить меня
Войти через:  Facebook Google Twitter Vk Yandex Mail.ru

John Denver - Let It Be - аккорды и текст, видео

Печатать
Просмотров: 60
Уроки эстрадного вокала в Санкт-Петербурге
Авторы: John Lennon, Paul McCartney

Let It Be
John Denver
 Capo On 2 or no capo on transpose 2+ 


A  E  F#m  D  D6  A
E  D  C#m/D  D6  A

        A              E
When I find myself in times of trouble
 F#m          D           D6
Mother Mary comes to me
  A                E              D C#m/D D6 A
Speaking words of wisdom, let it be

    A              E
And in my hour of darkness
         F#m                D           D6
She is standing right in front of me
  A                E              D C#m/D D6 A
Speaking words of wisdom, let it be

          F#m         F#m/E       D          A
Let it   be, let it be, let it be, let it be
                  E              D C#m/D D6 A
Whisper words of wisdom, let it be.

      A              E
And when the broken-hearted people
 F#m            D           D6
Living in the world agree
  A                  E           D C#m/D D6 A
There will be an answer, let it be

      A                    E
For though they may be parted
           F#m                  D           D6
There is still a chance that they will see
  A              E               D C#m/D D6 A
There will be an answer, let it be

          F#m         F#m/E       D          A
Let it   be, let it be, let it be, let it be

                     E           D C#m/D D6 A
There will be an answer, let it be

          F#m         F#m/E       D          A
Let it   be, let it be, let it be, let it be

                  E              D C#m/D D6 A
Whisper words of wisdom, let it be.


There Ain't no solo But if you want to make it here it is 

(instrumental 2x) D C#m/D D6 A G F#m E D A/C#

(solo 2x) A E F#m D A E D C#m/D D6 A

(part 1)                        (part 2)


           A                E           F#m                 D
E|------------------------------|------------------------------|
B|------------------------------|------------------------------|
G|------------------------------|------------------------------|
D|-------------11p9-------------|----------14-16p14------------|
A|-------12-12------12-12/14-14-|-12-14/16----------16p14\12---|
E|-12h14------------------------|------------------------------|


(part 3)


     A                        E
E|---------------------------------------------------------|
B|-----------------------------14-17b19r17-14--------------|
G|-----------------------14-16----------------16-14--------|
D|-------14-14-14--14h16-----------------------------------|
A|-14/16---------------------------------------------------|
E|---------------------------------------------------------|


(part 4)


     D                    A
E|--------------------------------------------------|
B|--------------------------------------------------|
G|-16b17r16-14--------------------------------------|
D|-------------16-14--------------------------------|
A|-------------------16-----------------------------|
E|----------------------17--------------------------|


(part 5)


            A                     E
E|---------------------------------------------------------|
B|---------------------------------------------------------|
G|---------------------------16/18-16-14h16----------------|
D|-------------------14/16-14---------------16-------------|
A|-------14/16-12h14---------------------------------------|
E|-12h14---------------------------------------------------|


(part 6)


           F#m                         D
E|-----------------------------------------------------|
B|-------------17-17b19r17-----------------------------|
G|-------16/18-------------16b18r17-14-----------------|
D|-14h16-----------------------------------------------|
A|-----------------------------------------------------|
E|-----------------------------------------------------|


(part 7)


           A                                 D
E|-------------17-------------19b21-19-17-------------|
B|----------------17b19r17----------------19-17-------|
G|-------16/18-------------18-------------------------|
D|-14h16----------------------------------------------|
A|----------------------------------------------------|
E|----------------------------------------------------|


(part 8)


                                A
E|---------------------------------------------------|
B|----17b19r17---------------------------------------|
G|-18----------16b17r16-14h16-14---------------------|
D|---------------------------------------------------|
A|---------------------------------------------------|
E|---------------------------------------------------|


          F#m         F#m/E       D          A
Let it   be, let it be, let it be, let it be
                  E              D C#m/D D6 A
Whisper words of wisdom, let it be.

      A                  E
And when the night is cloudy
           F#m                 D           D6
There is still a light that shines on me
  A            E              D C#m/D D6 A
Shine until tomorrow, let it be

   A              E
I wake up to the sound of music
 F#m          D           D6
Mother Mary comes to me
  A                E              D C#m/D D6 A
Speaking words of wisdom, let it be

          F#m         F#m/E       D          A
Let it   be, let it be, let it be, let it be
                     E           D C#m/D D6 A
There will be an answer, let it be
          F#m         F#m/E       D          A
Let it   be, let it be, let it be, let it be
                  E              D C#m/D D6 A
Whisper words of wisdom, let it be.

D C#m/D D6 A G F#m E D A 




           C#m/D D6                                   A/C#
E|-10-----9------------------------------------------|
B|-10-----9----12----10----12----10----9-----------10|
G|-11-----9----11----9-----12----11----9-----11----9-|
D|-------------12----11----12----11----9-----12----11|
A|-------------------12----10----9-----------12----12|
E|-10--10------------------------------12----10----9-|


( C#m/D )
Добавлено: 24.11.2015
Другие материалы по этой песне:
  • Аккорды и текст

Страница создана 20.06.2012
http://primanota.ru/john-denver/let-it-be-chords.htm
Привет, Гость.
Предлагаем пройти революционный курс по гитаре.
Подарок от PrimaNota.Ru, забирай!