PrimaNota.ru - самый крупный в мире бесплатный архив песенных текстов, аккордов, табулатур и нот


John Denver - Leaving On A Jet Plane Live - таба, видео

Регистрация Запомнить меня
Войти через:  Facebook Google Twitter Vk Yandex Mail.ru

John Denver - Leaving On A Jet Plane Live - таба, видео

Печатать
Просмотров: 56
Новый альбом группы 'Черный Кузнец' по культовому сериалу 'Сверхъестественное'!
From The Wildlife Concert


[Verse 1]
   G                 C/G               G                 C/G
e|-----------------|-----------------|-----------------|-----------------|
B|-------0-------0-|-------1-------1-|-------0-------0-|-------1-------1-|
G|---0-------0-----|---0-------0-----|---0-------0-----|---0-------0-----|
D|-----0-------0---|-----2-------2---|-----0-------0---|-----2-------2---|
A|-----------------|-----------------|-----------------|-----------------|
E|-3-------3-------|-3-------3-------|-3-------3-------|-3-------3-------|
...bags...        ...ready...       ...standing... ...outside...

   G                 C/G               D       Dsus4     D
e|-----------------|-----------------|-------2-------3-|-------2---------|
B|-------0-------0-|-------1-------1-|-3---3-------3---|-----3---------3-|
G|---0-------0-----|---0-------0-----|---2-------2-----|---2-------2-----|
D|-----0-------0---|-----2-------2---|-0-------0-------|-0-------0---0---|
A|-----------------|-----------------|-----------------|-----------------|
E|-3-------3-------|-3-------3-------|-----------------|-----------------|
   I hate...    ...up...        ...goodbye...

   G                 C/G               G                 C/G
e|-----------------|-----------------|-----------------|-----------------|
B|-------0-------0-|-------1-------1-|-------0-------0-|-------1-------1-|
G|---0-------0-----|---0-------0-----|---0-------0-----|---0-------0-----|
D|-----0-------0---|-----2-------2---|-----0-------0---|-----2-------2---|
A|-----------------|-----------------|-----------------|-----------------|
E|-3-------3-------|-3-------3-------|-3-------3-------|-3-------3-------|
...dawn...        ...early...       ...taxi's...      ...blowin'...

   G                 C/G               D       Dsus4     D
e|-----------------|-----------------|-------2-------3-|-------2---------|
B|-------0-------0-|-------1-------1-|-3---3-------3---|-----3---------3-|
G|---0-------0-----|---0-------0-----|---2-------2-----|---2-------2-----|
D|-----0-------0---|-----2-------2---|-0-------0-------|-0-------0---0---|
A|-----------------|-----------------|-----------------|-----------------|
E|-3-------3-------|-3-------3-------|-----------------|-----------------|
   Already...     ...lonesome...    ...die...

[Chorus]

   G                 C/G               G                 C/G
e|-----------------|-----------------|-----------------|-----------------|
B|-------0-------0-|-------1-------1-|-------0-------0-|-------1-------1-|
G|---0-------0-----|---0-------0-----|---0-------0-----|---0-------0-----|
D|-----0-------0---|-----2-------2---|-----0-------0---|-----2-------2---|
A|-----------------|-----------------|-----------------|-----------------|
E|-3-------3-------|-3-------3-------|-3-------3-------|-3-------3-------|
So kiss...        ...smile...       ...tell...        ...wait...

   G                 C/G               D       Dsus4     D
e|-----------------|-----------------|-------2-------3-|-------2---------|
B|-------0-------0-|-------1-------1-|---3-------3-----|---3-----------3-|
G|---0-------0-----|---0-------0-----|-----2-------2---|-----2-----2-----|
D|-----0-------0---|-----2-------2---|-0-------0-------|-0-------0---0---|
A|-----------------|-----------------|-----------------|-----------------|
E|-3-------3-------|-3-------3-------|-----------------|-----------------|
   Hold...        ...never...       ...go...

   G                 C/G               G                 C/G
e|-----------------|-----------------|-----------------|-----------------|
B|-------0-------0-|-------1-------1-|-------0-------0-|-------1-------1-|
G|---0-------0-----|---0-------0-----|---0-------0-----|---0-------0-----|
D|-----0-------0---|-----2-------2---|-----0-------0---|-----2-------2---|
A|-----------------|-----------------|-----------------|-----------------|
E|-3-------3-------|-3-------3-------|-3-------3-------|-3-------3-------|
...leaving...     ...on a...        ...don't...       ...I'll...

   G                 C/G               D       Dsus4             D
e|-----------------|-----------------|-------2-------3-|-------3-------2-|
B|-------0-------0-|-------1-------1-|---3-------3-----|---3-------3-----|
G|---0-------0-----|---0-------0-----|-----2-------2---|-----2-------2---|
D|-----0-------0---|-----2-------2---|-0-------0-------|-0-------0-------|
A|-----------------|-----------------|-----------------|-----------------|
E|-3-------3-------|-3-------3-------|-----------------|-----------------|
                 Oh, babe...        ...go..

   D       Dsus2
e|-------2-------0-|-------0---------|
B|---3-------3-----|---3-----------3-|
G|-----2-------2---|-----2-----2-----|
D|-0-------0-------|-0-------0---0---|
A|-----------------|-----------------|
E|-----------------|-----------------|

[Verse 2]
   G                 C/G               G                 C/G
e|-----------------|-----------------|-----------------|-----------------|
B|-------0-------0-|-------1-------1-|-------0-------0-|-------1-------1-|
G|---0-------0-----|---0-------0-----|---0-------0-----|---0-------0-----|
D|-----0-------0---|-----2-------2---|-----0-------0---|-----2-------2---|
A|-----------------|-----------------|-----------------|-----------------|
E|-3-------3-------|-3-------3-------|-3-------3-------|-3-------3-------|
...so many...     ...let...         ...so many...     ...played...

   G                 C/G               D       Dsus4     D
e|-----------------|-----------------|-------2-------3-|-------2---------|
B|-------0-------0-|-------1-------1-|---3-------3-----|---3-----------3-|
G|---0-------0-----|---0-------0-----|-----2-------2---|-----2-----2-----|
D|-----0-------0---|-----2-------2---|-0-------0-------|-0-------0---0---|
A|-----------------|-----------------|-----------------|-----------------|
E|-3-------3-------|-3-------3-------|-----------------|-----------------|
   I'll tell...   ...they...        ...thing...

   G                 C/G               G                 C/G
e|-----------------|-----------------|-----------------|-----------------|
B|-------0-------0-|-------1-------1-|-------0-------0-|-------1-------1-|
G|---0-------0-----|---0-------0-----|---0-------0-----|---0-------0-----|
D|-----0-------0---|-----2-------2---|-----0-------0---|-----2-------2---|
A|-----------------|-----------------|-----------------|-----------------|
E|-3-------3-------|-3-------3-------|-3-------3-------|-3-------3-------|
...place...       ...think...       ...song...        ...sing...

   G                 C/G               D       Dsus4     D
e|-----------------|-----------------|-------2-------3-|-------2---------|
B|-------0-------0-|-------1-------1-|---3-------3-----|---3-----------3-|
G|---0-------0-----|---0-------0-----|-----2-------2---|-----2-----2-----|
D|-----0-------0---|-----2-------2---|-0-------0-------|-0-------0---0---|
A|-----------------|-----------------|-----------------|-----------------|
E|-3-------3-------|-3-------3-------|-----------------|-----------------|
...I come...      ...bring...       ...ring...

[Chorus]

   G                 C/G               G                 C/G
e|-----------------|-----------------|-----------------|-----------------|
B|-------0-------0-|-------1-------1-|-------0-------0-|-------1-------1-|
G|---0-------0-----|---0-------0-----|---0-------0-----|---0-------0-----|
D|-----0-------0---|-----2-------2---|-----0-------0---|-----2-------2---|
A|-----------------|-----------------|-----------------|-----------------|
E|-3-------3-------|-3-------3-------|-3-------3-------|-3-------3-------|
So kiss...        ...smile...       ...tell...        ...wait...

   G                 C/G               D       Dsus4     D
e|-----------------|-----------------|-------2-------3-|-------2---------|
B|-------0-------0-|-------1-------1-|---3-------3-----|---3-----------3-|
G|---0-------0-----|---0-------0-----|-----2-------2---|-----2-----2-----|
D|-----0-------0---|-----2-------2---|-0-------0-------|-0-------0---0---|
A|-----------------|-----------------|-----------------|-----------------|
E|-3-------3-------|-3-------3-------|-----------------|-----------------|
   Hold...        ...never...       ...go...

   G                 C/G               G                 C/G
e|-----------------|-----------------|-----------------|-----------------|
B|-------0-------0-|-------1-------1-|-------0-------0-|-------1-------1-|
G|---0-------0-----|---0-------0-----|---0-------0-----|---0-------0-----|
D|-----0-------0---|-----2-------2---|-----0-------0---|-----2-------2---|
A|-----------------|-----------------|-----------------|-----------------|
E|-3-------3-------|-3-------3-------|-3-------3-------|-3-------3-------|
...leaving...     ...on a...        ...don't...       ...I'll...

   G                 C/G               D       Dsus4             D
e|-----------------|-----------------|-------2-------3-|-------3-------2-|
B|-------0-------0-|-------1-------1-|---3-------3-----|---3-------3-----|
G|---0-------0-----|---0-------0-----|-----2-------2---|-----2-------2---|
D|-----0-------0---|-----2-------2---|-0-------0-------|-0-------0-------|
A|-----------------|-----------------|-----------------|-----------------|
E|-3-------3-------|-3-------3-------|-----------------|-----------------|
                 Oh, babe...        ...go..

   D       Dsus2
e|-------2-------0-|-------0---------|
B|---3-------3-----|---3-------1---3-|
G|-----2-------2---|-----2-------2---|
D|-0-------0-------|-0-------0-------|
A|-----------------|-----------------|
E|-----------------|-----------------|

[Verse 3]
   G                 C/G               G                 C/G
e|-----------------|-----------------|-----------------|-----------------|
B|-------0-------0-|-------1-------1-|-------0-------0-|-------1-------1-|
G|---0-------0-----|---0-------0-----|---0-------0-----|---0-------0-----|
D|-----0-------0---|-----2-------2---|-----0-------0---|-----2-------2---|
A|-----------------|-----------------|-----------------|-----------------|
E|-3-------3-------|-3-------3-------|-3-------3-------|-3-------3-------|
   Now...         ...come...        ...One...         ...let...

   G                 C/G               D       Dsus4     D
e|-----------------|-----------------|-------2-------3-|-------2---------|
B|-------0-------0-|-------1-------1-|---3-------3-----|---3-----------3-|
G|---0-------0-----|---0-------0-----|-----2-------2---|-----2-----2-----|
D|-----0-------0---|-----2-------2---|-0-------0-------|-0-------0---0---|
A|-----------------|-----------------|-----------------|-----------------|
E|-3-------3-------|-3-------3-------|-----------------|-----------------|
   Close...       ...I'll be...     ...way...

   G                 C/G               G                 C/G
e|-----------------|-----------------|-----------------|-----------------|
B|-------0-------0-|-------1-------1-|-------0-------0-|-------1-------1-|
G|---0-------0-----|---0-------0-----|---0-------0-----|---0-------0-----|
D|-----0-------0---|-----2-------2---|-----0-------0---|-----2-------2---|
A|-----------------|-----------------|-----------------|-----------------|
E|-3-------3-------|-3-------3-------|-3-------3-------|-3-------3-------|
   Dream...       ...days...        ...I won't...     ...leave...

   G                 C/G               D       Dsus4     D
e|-----------------|-----------------|-------2-------3-|-------2---------|
B|-------0-------0-|-------1-------1-|---3-------3-----|---3-----------3-|
G|---0-------0-----|---0-------0-----|-----2-------2---|-----2-----2-----|
D|-----0-------0---|-----2-------2---|-0-------0-------|-0-------0---0---|
A|-----------------|-----------------|-----------------|-----------------|
E|-3-------3-------|-3-------3-------|-----------------|-----------------|
  About...        ...I won't...     ...say...

[Double Final Chorus]

   G                 C/G               G                 C/G
e|-----------------|-----------------|-----------------|-----------------|
B|-------0-------0-|-------1-------1-|-------0-------0-|-------1-------1-|
G|---0-------0-----|---0-------0-----|---0-------0-----|---0-------0-----|
D|-----0-------0---|-----2-------2---|-----0-------0---|-----2-------2---|
A|-----------------|-----------------|-----------------|-----------------|
E|-3-------3-------|-3-------3-------|-3-------3-------|-3-------3-------|
So kiss...        ...smile...       ...tell...        ...wait...

   G                 C/G               D       Dsus4     D
e|-----------------|-----------------|-------2-------3-|-------2---------|
B|-------0-------0-|-------1-------1-|---3-------3-----|---3-----------3-|
G|---0-------0-----|---0-------0-----|-----2-------2---|-----2-----2-----|
D|-----0-------0---|-----2-------2---|-0-------0-------|-0-------0---0---|
A|-----------------|-----------------|-----------------|-----------------|
E|-3-------3-------|-3-------3-------|-----------------|-----------------|
   Hold...        ...never...       ...go...

   G                 C/G               G                 C/G
e|-----------------|-----------------|-----------------|-----------------|
B|-------0-------0-|-------1-------1-|-------0-------0-|-------1-------1-|
G|---0-------0-----|---0-------0-----|---0-------0-----|---0-------0-----|
D|-----0-------0---|-----2-------2---|-----0-------0---|-----2-------2---|
A|-----------------|-----------------|-----------------|-----------------|
E|-3-------3-------|-3-------3-------|-3-------3-------|-3-------3-------|
...leaving...     ...on a...        ...don't...       ...I'll...

   G                 C/G               D       Dsus4     D
e|-----------------|-----------------|-------2-------3-|-------2---------|
B|-------0-------0-|-------1-------1-|---3-------3-----|---3-----------3-|
G|---0-------0-----|---0-------0-----|-----2-------2---|-----2-----2-----|
D|-----0-------0---|-----2-------2---|-0-------0-------|-0-------0---0---|
A|-----------------|-----------------|-----------------|-----------------|
E|-3-------3-------|-3-------3-------|-----------------|-----------------|
                 Oh, babe...        ...go..

   G                 C/G               G                 C/G
e|-----------------|-----------------|-----------------|-----------------|
B|-------0-------0-|-------1-------1-|-------0-------0-|-------1-------1-|
G|---0-------0-----|---0-------0-----|---0-------0-----|---0-------0-----|
D|-----0-------0---|-----2-------2---|-----0-------0---|-----2-------2---|
A|-----------------|-----------------|-----------------|-----------------|
E|-3-------3-------|-3-------3-------|-3-------3-------|-3-------3-------|
...leaving...     ...on a...        ...don't...       ...I'll...

   G                 C       C/G               C         D       Dsus4             D
e|-----------------|-----------------|-----------------|-------2-------3-|-------3-------2-|
B|-------0-------0-|-------1-------1-|-------1-------1-|---3-------3-----|---3-------3-----|
G|---0-------0-----|---0-------0-----|---0-------0-----|-----2-------2---|-----2-------2---|
D|-----0-------0---|-----2-------2---|-----2-------2---|-0-------0-------|-0-------0-------|
A|-----------------|-3---------------|---------3-------|-----------------|-----------------|
E|-3-------3-------|---------3-------|-3---------------|-----------------|-----------------|
                 Oh, baby...                         ...go..

   D       Dsus2                                         G
e|-------2-------0-|-------0-------0-|-------0-------2-|-3---------------|
B|---3-------3-----|---3-------3-----|---3-------------|-0---------------|
G|-----2-------2---|-----2-------2---|-----2-----2-----|-0---------------|
D|-0-------0-------|-0-------0-------|-0-------0---0---|-0---------------|
A|-----------------|-----------------|-----------------|-2---------------|
E|-----------------|-----------------|-----------------|-3---------------|


Добавлено: 12.12.2017
Другие материалы по этой песне:
  • Аккорды и текст

Страница создана 12.12.2017
http://primanota.ru/john-denver/leaving-on-a-jet-plane-live-chords.htm
Привет, Гость.
Предлагаем пройти революционный курс по гитаре.
Подарок от PrimaNota.Ru, забирай!