PrimaNota.ru - самый крупный в мире бесплатный архив песенных текстов, аккордов, табулатур и нот


John Denver - Durango Mountain Caballero - аккорды и текст, видео

Регистрация Запомнить меня
Войти через:  Facebook Google Twitter Vk Yandex Mail.ru

John Denver - Durango Mountain Caballero - аккорды и текст, видео

Печатать
Просмотров: 52
Durango Mountain Caballero
John Denver
John Denver - Durango Mountain Caballero
From the album: Rocky Mountain Holiday (1983)
Comment for any corrections and please rate

This is the tab for the song:
   C                               Dm
e|-----0-------0-------0-------0---------1-----1---------1-----1---|
B|-------1-------1-------1-------1-----3---------3-----3---------3-|
G|---0-------0-------0-------0-------2-------2-------2-------2-----|
D|---------------------------------0-------0-------0-------0-------|
A|-3-------3-------3-------3---------------------------------------|
E|-----------------------------------------------------------------|

   G                               C
e|-----3-------3-------3-------3-------0-------0-------0-------0---|
B|-------0-------0-------0-------0-------1-------1-------1-------1-|
G|---0-------0-------0-------0-------0-------0-------0-------0-----|
D|-----------------------------------------------------------------|
A|---------------------------------3-------3-------3-------3-------|
E|-3-------3-------3-------3---------------------------------------|


Intro: C

      C
You know I love the trail I'm on
          Dm
And the friends who ride with me
     G
The country that we're passing through
      C
Is a paradise to see

   C
A haven for my spirit
     Dm
The homeland of my dreams
    G
My heart flies through the wilderness
    C
And on an eagle's wings

     C
And, oh, I love the waterfall
         Dm
And the way the river sings
       G
From snow capped peaks both proud and tall
         C
Through forests deep and green

     C
The highway of the mountains
     Dm
The lifeblood of the land
       G
I can hear my mother speak to me
     C
And hold my father's hand

   F
Durango Mountain Caballero
 C
Take me for a ride
        F
On the backbone of this mighty land
     C
The continental divide
         F
To the place where earth and heaven
          Am
Meet the mountains and the sky
        F                  G              G7
In the heart of Colorado, Rocky Mountain High

     C
And, oh, I love the campfire
         Dm
And the circle that I'm in
      G
The stories and the laughter
             C
They should never, ever end

   C
Forever in my memory
   Dm
Forever in my song
      G
On a San Juan mountain trail ride
      F      G   C
I'll carry you along
Добавлено: 24.11.2015
Другие материалы по этой песне:
  • Аккорды и текст

Страница создана 31.07.2012
http://primanota.ru/john-denver/durango-mountain-caballero-chords.htm
Привет, Гость.
Предлагаем пройти революционный курс по гитаре.
Подарок от PrimaNota.Ru, забирай!