PrimaNota.ru - самый крупный в мире бесплатный архив песенных текстов, аккордов, табулатур и нот


John Coperiaro - Grays Inn The First - таба

Регистрация Запомнить меня
Войти через:  Facebook Google Twitter Vk Yandex Mail.ru

John Coperiaro - Grays Inn The First - таба

Печатать
Просмотров: 862
Gray's Inn, The First, by John Coperiaro (c. 1575 - 1626

Some of the original sheet music had to be adapted, due to the guitar not
being able to notes such as b# on standard tuning (although you might be 
able to achieve this by using an alternate tuning on your guitar). I highly
 recommend checking out the original sheet music.

For Timing Above and Below The Staff:
w: whole note         e: eighth note
h: half note             s: sixteenth note
q: quarter note        *: equivalent of adding 1/2 of original note
r: rest                      @: repeat

For Symbols in the Staff:
h: hammer on
p: pull off

Letters on the upper part correspond to the timing of the higher note, and 
letters on the lower part correspond to the timing of the lower note.

                                                                             
@  q  e e  e   e  q  q  e  e  h  e   e  e  e  e  e  e  e  q  e  e  h            
e|--------------------------------------------------------0--1--0---------------------------|
B|-0--0-----------0--1--3--1--0---------------0--1--3--0-----------4------------------------|
G|------2--0-h-2------------------------0--2------------------------------------------------|
D|---------2---------------------2-h-3--------2-----0---------------------------------------|
A|-2-----------------0------------------------------------3--------2------------------------|
E|----------------------------0--0----------------------------------------------------------|
   h       h         h        h  h            q     q     h        h          

                                                                          @   
   e  e  e  e  q  q  q* q  s  s  q* e  e  e  e  e  e  e  e  e  q* q e  h  q* q  e  q  q       
e|----------0-------------------------------------------------------------------------0-----|
B|-0--1--3-----3-----------------0--0-------------------------------------------------------|
G|----------------0--2-----0--2--------2--0-----------0--2--0-------------------------------|
D|----------------------0--------------------3--2--3-----------3----2--2--3-----3--2--------|
A|----------------2--3-----------------0-----3-----2-----------0--2-------3--2--------------|
E|-3-----------3-----------------3-----------------------3-------------0-----------0--0-----|
   h           q  q  q           h     q     q     q     q     q       h  q        q  q   
 
 @
    q*  e     e    e    e  e     h*        q        e     e     e      e     q   q          
e|--0---0----------0------------------------------------------------------------------------|
B|------------3---------3--1-----0------------------------0-----1------3-----0--------------|
G|-----------------------------------------0--------2----------------------------2----------|
D|---------------------------------------------------------------------------0--------------|
A|--------------------------------------------------3---------------------------------------|
E|--0---------1------------------3----3-------------h---------------------------------------|
    h         h                  h    h                                      h              

@                                                                                          
   e   e     q    e   e   q    h      r:q   e   e   g      r:q q  q   h    h                     
e|------------------------0-----------------------------------------------------------------|
B|-----------0----2-h-3--------4------------0-------1----------3--1---0---------------------|
G|-0-h-2----------------------------------------3--------------------------0----------------|
D|------------------------------------------------------------------------------------------|
A|-----------------------------2---0----------------0----------------------3----2-----------|
E|-3--------------1-----0---------------4---------------3---2---------3---------------------|
   h              q     q      q*  e    h           q*  e   h         h    q*   e           
                                                                             
                                                           @                       
       h       h      r:q     e     e   e   e   e   e      h*           w           
e|----------------------------0-----1---3---3---1-p-0------0------------0----------|
B|---------------------------------------------------------------------------------|
G|-----2---------------------------------------------------------------------------|
D|-------------3-------2-----------------------------------------------------------|
A|-----0-------2--------------0---------2------------------------------------------|
E|---------------------------------------------------------0------------0----------|
       h       h       q      q                            h*           w          
Добавлено: 28.06.2016
Другие материалы по этой песне:
  • Аккорды и текст

Страница создана 28.06.2016
http://primanota.ru/john-coperiaro/grays-inn-first-chords.htm
Привет, Гость.
Предлагаем пройти революционный курс по гитаре.
Подарок от PrimaNota.Ru, забирай!