PrimaNota.ru - самый крупный в мире бесплатный архив песенных текстов, аккордов, табулатур и нот


John Coltrane - My Favorite Things - таба, видео

Регистрация Запомнить меня
Войти через:  Facebook Google Twitter Vk Yandex Mail.ru

John Coltrane - My Favorite Things - таба, видео

Печатать
Просмотров: 633
Уроки эстрадного вокала в Санкт-Петербурге
Tabbed by: Jaron
Email: cardboy9@yahoo.com

Artist: John Coltrane
Song: My Favorite Things

http://www.youtube.com/watch?v=iQsvMf8X0FY

Alright, I have tabbed out Tyner's piano intro, along with Coltrane's intro.


     E         D          C        A
e|--------------------------------------|
B|----5---5---3----3--------------------|
G|--4---4---2----2------5---5----2---2--|  x2
D|--------------------5---5----2---2----|
A|--------------------------------------|
E|--------------------------------------|
    D D E
e|--2-2-4--|
B|--3-3-5--|

e|-----7-7----------------------------|
B|---5-----5--5-0-5-5-7-5-7-5---------|
G|------------------------------------|
D|------------------------------------| x2
A|------------------------------------|
E|------------------------------------|

e|-----7-5-------5-3-------------3-5-7---|
B|---5-----7-5-3-------------5-7---------|
G|-------------------5~--5-7-------------|
D|---------------------------------------|
A|---------------------------------------|
E|---------------------------------------|

That's all, for now. For the rest, you may want to improvise around E and E Minor. Also, 
there are a few variations throughout, like:

e|---7-7------|
B|-5----5/6\5-|

and

e|---7-7-7--|
B|-5--------|

************************************
| /   slide up
| \   slide down
************************************
Добавлено: 07.07.2012
Другие материалы по этой песне:

Страница создана 07.07.2012
http://primanota.ru/john-coltrane/my-favorite-things-chords.htm
Привет, Гость.
Предлагаем пройти революционный курс по гитаре.
Подарок от PrimaNota.Ru, забирай!