PrimaNota.ru - самый крупный в мире бесплатный архив песенных текстов, аккордов, табулатур и нот


John Coltrane - Locomotion - таба, видео

Регистрация Запомнить меня
Войти через:  Facebook Google Twitter Vk Yandex Mail.ru

John Coltrane - Locomotion - таба, видео

Печатать
Просмотров: 71
Авторы музыки: John Coltrane

-------------------------------------------------------------------------------
                             Locomotion - John Coltrane
-------------------------------------------------------------------------------
Tuning: Standard

[A]
        Bb 7
e|----|-----------------|-----------------|------------------|------------------|
B|----|-----------------|-----------------|------------------|------------------|
G|----|-----------------|-----------------|------------------|------------------|
D|----|-6-8-------------|-6-8-------------|-6-8--------------|-6-8-6-8--------8-|
A|--8-|---------------8-|---------------8-|----------------8-|------------------|
E|----|-----------------|-----------------|------------------|------------------|


  Eb 7                                Bb 7
e|-----------------|-----------------|-----------------|------------------|
B|-----------------|-----------------|-----------------|------------------|
G|-6-8-------------|-6-8-------------|-----------------|------------------|
D|---------------8-|-----------------|-6-8-------------|-6-8-6-8----------|
A|-----------------|---------------8-|---------------8-|------------------|
E|-----------------|-----------------|-----------------|------------------|


  Cm 7              F7                Bb 7
e|-----------------|-----------------|-----------------|------------------|
B|-----------------|-----------------|-----------------|------------------|
G|-----------------|-----------------|-----------------|------------------|
D|-----------------|-----------------|-----------------|------------------|
A|-----------------|-----------------|-----------------|------------------|
E|-----------------|-----------------|-----------------|------------------|


[B]


  Ab 7                                G7
e|-----------------|-----------------|-----------------|------------------|
B|-----------------|-----------------|-----------------|------------------|
G|-----------------|-----------------|-----------------|------------------|
D|-----------------|-----------------|-----------------|------------------|
A|-----------------|-----------------|-----------------|------------------|
E|-----------------|-----------------|-----------------|------------------|

  Gb 7                                F7
e|-----------------|-----------------|-----------------|------------------|
B|-----------------|-----------------|-----------------|------------------|
G|-----------------|-----------------|-----------------|------------------|
D|-----------------|-----------------|-----------------|------------------|
A|-----------------|-----------------|-----------------|------------------|
E|-----------------|-----------------|-----------------|------------------|

Song Structure {[A][A][B][A]}
Добавлено: 15.08.2015
Другие материалы по этой песне:

Страница создана 18.04.2012
http://primanota.ru/john-coltrane/locomotion-chords.htm
Привет, Гость.
Предлагаем пройти революционный курс по гитаре.
Подарок от PrimaNota.Ru, забирай!