PrimaNota.ru - самый крупный в мире бесплатный архив песенных текстов, аккордов, табулатур и нот


John Coltrane - Cherryco - таба, видео

Регистрация Запомнить меня
Войти через:  Facebook Google Twitter Vk Yandex Mail.ru

John Coltrane - Cherryco - таба, видео

Печатать
Просмотров: 46
Авторы музыки: Don Cherry

-------------------------------------------------------------------------------
                             Cherryco - John Coltrane
-------------------------------------------------------------------------------
Tabbed by: ZackyWacky
E-mail: zack.samford@gmail.com

Tuning: Standard (E,A,D,G,B,E)

This is my first tab so yeah. I also didn't see this tab on the internet so I thought I'd make one. 

e|--------------------------------------------------------------------------------|
B|--------------------------------------------------------------------------------|
G|------------------------------------------------------------------------6-------|
D|--3p2-3\6-10-10---8-10\11-6\5-8-8---6\3/6/8-9-------6h7-------------3/6---8/10--|
A|-3--------------------------------------------7-6-------8---9-------------------|
E|----------------------------------------------------------9---9-8---------------|


************************************

| /   slide up
| \   slide down
| h   hammer-on
| p   pull-off
| ~   vibrato
| +   harmonic
| x   Mute note
| b   Bend
| pb  Pre-bend
| br  Bend release
| pbr Pre-bend release
| brb Bend release bend

************************************
Добавлено: 15.12.2015
Другие материалы по этой песне:
  • Аккорды и текст

Страница создана 15.12.2015
http://primanota.ru/john-coltrane/cherryco-chords.htm
Привет, Гость.
Предлагаем пройти революционный курс по гитаре.
Подарок от PrimaNota.Ru, забирай!