PrimaNota.ru - самый крупный в мире бесплатный архив песенных текстов, аккордов, табулатур и нот


John Coltrane - Chasin The Trane - таба, видео

Регистрация Запомнить меня
Войти через:  Facebook Google Twitter Vk Yandex Mail.ru

John Coltrane - Chasin The Trane - таба, видео

Печатать
Просмотров: 68
Авторы музыки: John Coltrane

-------------------------------------------------------------------------------
                          Chasin' The Trane - John Coltrane
-------------------------------------------------------------------------------

       F                C7               Dm7     G7       Cm7     F7         
e|----|5---8-5---------|----6-----------|--5-------------|----------------|
B|--6-|--------------6-|8-----8-------6-|------6---------|--8-------------|
G|----|----------------|----------------|----------7---8-|------8---5-----|
D|----|----------------|----------------|----------------|----------------|
A|----|----------------|----------------|----------------|----------------|
E|----|----------------|----------------|----------------|----------------|

  Bb               Cm7     F7       Bb               Cm7     F7
e|----------------|----------------|----------------|----------------|
B|--6-------------|----------------|----------------|----------------|
G|7-------7-----5-|--8-----5-------|--7---------5---|----------------|
D|------------8---|------------7-8-|----8-5-7-----5-|--7-------------|
A|----------------|----------------|----------------|------8---------|
E|----------------|----------------|----------------|----------------|

  Gm7              C7               F    
e|----------------|----------5-----|----------------|----------------||
B|----------------|--6-5-6-8-----5-|6---------------|----------------||
G|--------------5-|7-----------7---|----------------|----------------||
D|----7---5-7-8---|----------------|----------------|----------------||
A|--8---8---------|----------------|----------------|----------------||
E|----------------|----------------|----------------|----------------||



--------------------------[Notes]-------------------------------------
Tuning: Standard
Time: 4/4
Rhythm is written such that each - represents one sixteenth note.

Example: 2 measures with rhythm written out
     
  Bb               Cm7     F7      
 |1e+a2e+a3e+a4e+a|1e+a2e+a3e+a4e+a|
e|----------------|----------------|
B|--6-------------|----------------|
G|7-------7-----5-|--8-----5-------|
D|------------8---|------------7-8-|
A|----------------|----------------|
E|----------------|----------------|
Добавлено: 20.04.2016
Вам также может быть интересно:
Другие материалы по этой песне:
  • Аккорды и текст

Страница создана 20.04.2016
http://primanota.ru/john-coltrane/chasin-trane-chords.htm
Привет, Гость.
Предлагаем пройти революционный курс по гитаре.
Подарок от PrimaNota.Ru, забирай!