PrimaNota.ru - самый крупный в мире бесплатный архив песенных текстов, аккордов, табулатур и нот


John Coltrane - Bessies Blues - бас-таба, видео

Регистрация Запомнить меня
Войти через:  Facebook Google Twitter Vk Yandex Mail.ru

John Coltrane - Bessies Blues - бас-таба, видео

Печатать
Просмотров: 159
Уроки эстрадного вокала в Санкт-Петербурге
Авторы музыки: John Coltrane

Hey, cause this is a blues standard it can be played
many ways, but this is the way i learnt it in E flat Major.

G|----------------|--5-------------|----------------|----------------|
D|-5--------------|--------6---4---|---5---5-5------|-5--------------|
A|------6---4-----|----------------|-6---6-----6----|----6---5---4---|
E|----------------|----------------|----------------|----------------|

G|-5----5---------|--5-------------|----------------|----------------|
D|---6------6-----|--------6-------|-4---5---5-5----|-5--------------|
A|----------------|----------------|---6--6-----6---|---6---5---4----|
E|----------------|----------------|----------------|----------------|

G|----------------|----------------|---------------|-----------3----|
D|--5--4-3-0----0-|-3-1----------1-|-----3-1-------|---3-5-6--------|
A|-----------1----|-------3-----3--|-----------3---|----------------|
E|----------------|----------4-----|---------------|----------------|
Добавлено: 13.06.2012
Другие материалы по этой песне:

Страница создана 24.03.2012
http://primanota.ru/john-coltrane/bessies-blues-chords.htm
Привет, Гость.
Предлагаем пройти революционный курс по гитаре.
Подарок от PrimaNota.Ru, забирай!