PrimaNota.ru - самый крупный в мире бесплатный архив песенных текстов, аккордов, табулатур и нот


John Coffey - Romans - таба, видео

Регистрация Запомнить меня
Войти через:  Facebook Google Twitter Vk Yandex Mail.ru

John Coffey - Romans - таба, видео

Печатать
Просмотров: 186
-------------------------------------------------------------------------------
                             ROMANS - John Coffey
-------------------------------------------------------------------------------
Tabbed by: Joepske
E-mail:

Tuning: Standard (you could consider playing it in drop D)


Main riff (play twice)
                     x3                         
e|-------------------|-----------|      
B|-------------------|-----------|
G|---7---------------|-----------|
D|---7---------3-4---|--555--333-|
A|---5---3h4h5-------|--555--333-|
E|-------------------|--333--111-|

Pre-Chorus: 
"Hey I never asked for" (clean)
e|--------|-------|
B|--------|-------|
G|-----7--|--12---|
D|-----7--|--12---|
A|-----5--|--10---|
E|--------|-------|

Chorus:

"Walk on!"                  "Run 44 miles"
e|------------------|-------------------------|
B|------------------|-------------------------|
G|-----7--7--7--7---|----3-3-3-3----5-5-5-5---|
D|-----7--7--7--7---|----3-3-3-3----5-5-5-5---|
A|-----5--5--5--5---|----1-1-1-1----3-3-3-3---|
E|------------------|-------------------------|
"Walk on!"                      "Run 44 miles"
e|------------------|-----------------|
B|------------------|-----------------|
G|-----7--7--7--7---|----77-77-77-77--|
D|-----7--7--7--7---|----77-77-77-77--|
A|-----5--5--5--5---|----55-55-55-55--|
E|------------------|-----------------|

"Children we did not sleep!"

Main Riff x2

Pre-Chorus

Chorus

Bridge:
                                                                
e|---------------------------| x4
B|---------------(palm-muted)|
G|----10--7--5---777777777---|
D|----10--7--5---777777777---|
A|----8---5--3---555555555---|
E|---------------------------|

"Miles 'til the end of the road we walk" (a capella)

and then:
e|--------------------|         
B|--------------------|
G|----10--7--5---12---|
D|----10--7--5---12---|
A|----8---5--3---10---|
E|--------------------|

"Yeah we try to bring you"
e|----------|----------|----------|----------|
B|----------|----------|----------|----------|
G|-33333333-|-55555555-|----------|----------|
D|-33333333-|-55555555-|-55555555-|-33333333-|
A|-11111111-|-33333333-|-55555555-|-33333333-|
E|----------|----------|-33333333-|-11111111-|

"...Ground Boy Die Boy!"                 
e|------------------|
B|------------------|
G|-----7--7--7--7---|
D|-----7--7--7--7---|
A|-----5--5--5--5---|
E|------------------|

"Yeah we try to bring you"
e|----------|----------|----------|----------|
B|----------|----------|----------|----------|
G|-33333333-|-55555555-|----------|----------|
D|-33333333-|-55555555-|-55555555-|-33333333-|
A|-11111111-|-33333333-|-55555555-|-33333333-|
E|----------|----------|-33333333-|-11111111-|

"...Ground Boy Die Boy"
e|------------------|-----------------|
B|------------------|-----------------|
G|-----7--7--7--7---|----77-77-77-77--|
D|-----7--7--7--7---|----77-77-77-77--|
A|-----5--5--5--5---|----55-55-55-55--|
E|------------------|-----------------|

"He held his hands up high"                  x4
e|-------------------------------------------|
B|-------------------------------------------|
G|----------------7777777----------7777777---|
D|--3-(let ring)--7777777----3-5-3-7777777---|
A|--3-------------5555555----3-5-3-5555555---|
E|--1------------------------1-3-1-----------|
Добавлено: 31.01.2014
Другие материалы по этой песне:
  • Аккорды и текст

Страница создана 31.01.2014
http://primanota.ru/john-coffey/romans-chords.htm
Привет, Гость.
Предлагаем пройти революционный курс по гитаре.
Подарок от PrimaNota.Ru, забирай!