PrimaNota.ru - самый крупный в мире бесплатный архив песенных текстов, аккордов, табулатур и нот


John Coffey - Dirt And Stones - таба, видео

Регистрация Запомнить меня
Войти через:  Facebook Google Twitter Vk Yandex Mail.ru

John Coffey - Dirt And Stones - таба, видео

Печатать
Просмотров: 105
------------------------------------------------------------------------------------------------------------|
INTRO
E|---------------------------------|--------------------------|--------------------------|-----------------|
B|---------------------------------|--------------------------|--------------------------|-----------------|
G|---------------------------------|--------------------------|--------------------------|-----------------|
D|---------------------------------|--------------------------|--------------------------|-----------------|
A|---------------------------------|--------------------------|--------------------------|-----------------|
E|--7/0--2--2--2--0--2--0--4--0----|--2--2--2--0--2--0--3--0--|--2--2--2--0--2--0--4--0--|--2--2--2--0--3--|

E|--------------|--------------|--------------|----------------------|---------------------------------|
B|--------------|--------------|--------------|----------------------|---------------------------------|
G|--------------|--7--6--------|--7--9--------|--11--12--14--9--9----|--7--9--7--9---------------------|
D|--9--9--9--9--|--7--6--9--9--|--7--9--9--9--|----------------------|------------------12--11--10--9--|
A|--9--9--9--9--|--------9--9--|--------9--9--|--9---10--12--7--7----|--5--7--5--7------12--11--10--9--|
E|--9--9--9--9--|--------9--9--|--------9--9--|----------------------|------------------12--11--10--9--|

E|--------------|--------------|--------------|----------------------|---------------------------------|
B|--------------|--------------|--------------|----------------------|---------------------------------|
G|--------------|--7--6--------|--7--9--------|--11--12--14--9--9----|--7--9--7--9---------------------|
D|--9--9--9--9--|--7--6--9--9--|--7--9--9--9--|----------------------|------------------12--11--10--9--|
A|--9--9--9--9--|--------9--9--|--------9--9--|--9---10--12--7--7----|--5--7--5--7------12--11--10--9--|
E|--9--9--9--9--|--------9--9--|--------9--9--|----------------------|------------------12--11--10--9--|

-----------------------------------------------------------------------------------------------------------|
VERSE

E|--------------|--------------|
B|--------------|--------------|
G|--------2~----|--------3~----| 4X
D|-----4~-------|-----2~-------|
A|--2~----------|--1~----------|
E|--------------|--------------|

-----------------------------------------------------------------------------------------------------------|
PRE-CHORUS

E|-------------------------------|--------------------------|--------------------------|----------------------|
B|-------------------------------|--------------------------|--------------------------|----------------------|
G|-------------------------------|--------------------------|--------------------------|----------------------|
D|-------------------------------|--------------------------|--------------------------|--3\---12--11--10--9--|
A|-------------------------------|--------------------------|--------------------------|--3\---12--11--10--9--|
E|-----2--2--2--0--2--0--4--0----|--2--2--2--0--2--0--3--0--|--2--2--2--0--2--0--4--0--|--3\---12--11--10--9--|

-----------------------------------------------------------------------------------------------------------|
CHORUS
E|--------------|--------------|--------------|----------------------|---------------------------------|
B|--------------|--------------|--------------|----------------------|---------------------------------|
G|--------------|--7--6--------|--7--9--------|--11--12--14--9--9----|--7--9--7--9---------------------|
D|--9--9--9--9--|--7--6--9--9--|--7--9--9--9--|----------------------|------------------12--11--10--9--|
A|--9--9--9--9--|--------9--9--|--------9--9--|--9---10--12--7--7----|--5--7--5--7------12--11--10--9--|
E|--9--9--9--9--|--------9--9--|--------9--9--|----------------------|------------------12--11--10--9--|

E|--------------|------------------|
B|--------------|------------------|
G|--7--7--7--7--|--11--11--11--11--| 2X
D|--5--5--5--5--|--9---9---9---9---|
A|--5--5--5--5--|--9---9---9---9---|
E|--5--5--5--5--|--9---9---9---9---|

E|--------------|--------------|--------------|--------------|
B|--------------|--------------|--------------|--------------|
G|--4--4--4--4--|--4--4--4--4--|--4--4--------|--4--4--4--4--|
D|--2--2--2--2--|--4--4--4--4--|--2--2--5--5--|--4--4--4--4--|
A|--2--2--2--2--|--2--2--2--2--|--2--2--5--5--|--2--2--2--2--|
E|--2--2--2--2--|--------------|--2--2--5--5--|--------------|

-----------------------------------------------------------------------------------------------------------|
VERSE
E|--------------|--------------|
B|--------------|--------------|
G|--------2~----|--------3~----| 3X
D|-----4~-------|-----2~-------|
A|--2~----------|--1~----------|
E|--------------|--------------|

E|--------------|----1~----------|
B|--------------|-------1~-------|
G|--------2~----|----------3~----|
D|-----4~-------|----------------|
A|--2~----------|----------------|
E|--------------|----------------|

-----------------------------------------------------------------------------------------------------------|
BRIDGE
E|-----------|--------------|-----------------|--------------|--------|
B|-----------|--------------|-----------------|--------------|--------|
G|--7--9-----|--------------|--------7--9-----|--------------|--------| 2X
D|--7--9--7--|--9--9--9--9--|--9--9--7--9--7--|--9--9--9--9--|--9--9--|
A|--------7--|--9--9--9--9--|--9--9--------7--|--9--9--9--9--|--9--9--|
E|--------7--|--9--9--9--9--|--9--9--------7--|--9--9--9--9--|--9--9--|

E|-----------------|
B|-----------------|
G|-----------------|
D|--12--11--10--5--|
A|--12--11--10--5--|
E|--12--11--10--5--|
-------------------|
CHORUS
E|--------------|------------------|
B|--------------|------------------|
G|--7--7--7--7--|--11--11--11--11--| 2X
D|--5--5--5--5--|--9---9---9---9---|
A|--5--5--5--5--|--9---9---9---9---|
E|--5--5--5--5--|--9---9---9---9---|

E|--------------|--------------|--------------|
B|--------------|--------------|--------------|
G|--4--4--4--4--|--4--4--4--4--|--4--4--------|
D|--2--2--2--2--|--4--4--4--4--|--2--2--5--5--|
A|--2--2--2--2--|--2--2--2--2--|--2--2--5--5--|
E|--2--2--2--2--|--------------|--2--2--5--5--|

E|--------------|------------------|
B|--------------|------------------|
G|--7--7--7--7--|--11--11--11--11--|
D|--5--5--5--5--|--9---9---9---9---|
A|--5--5--5--5--|--9---9---9---9---|
E|--5--5--5--5--|--9---9---9---9---|

E|--------------|------------x--x--x--|
B|--------------|------------x--x--x--|
G|--7--7--7--7--|--11~-------x--x--x--|
D|--5--5--5--5--|--0~--------x--x--x--|
A|--5--5--5--5--|--0~--------x--x--x--|
E|--5--5--5--5--|--0~--------x--x--x--|

E|--------------|--------------|--------------|
B|--------------|--------------|--------------|
G|--4--4--4--4--|--4--4--4--4--|--4--4--------|
D|--2--2--2--2--|--4--4--4--4--|--2--2--5--5--|
A|--2--2--2--2--|--2--2--2--2--|--2--2--5--5--|
E|--2--2--2--2--|--------------|--2--2--5--5--|
Добавлено: 08.11.2015
Другие материалы по этой песне:
  • Аккорды и текст

Страница создана 08.11.2015
http://primanota.ru/john-coffey/dirt-and-stones-chords.htm
Привет, Гость.
Предлагаем пройти революционный курс по гитаре.
Подарок от PrimaNota.Ru, забирай!