PrimaNota.ru - самый крупный в мире бесплатный архив песенных текстов, аккордов, табулатур и нот


John Coffey - Broke Neck - таба, видео

Регистрация Запомнить меня
Войти через:  Facebook Google Twitter Vk Yandex Mail.ru

John Coffey - Broke Neck - таба, видео

Печатать
Просмотров: 131
---------------------------------------------|
CHORUS/INTRO
E|--------------|
B|--------------|
G|--6--6--6--6--| 4X
D|--6--6--6--6--|
A|--4--4--4--4--|
E|--------------|


E|--------------------------------------|
B|--------------------------------------|
G|--------------------------------------|
D|--------7--7--4--4--4--4--4--4--4--4--|
A|--------5--5--0--0--2--2--2--2--2--2--|
E|--2--0--------------------------------|

E|--------------|
B|--------------|
G|--------------| 4X
D|--4--4--4--4--|
A|--4--4--4--4--|
E|--2--2--2--2--|


E|-----0---------2----0~--|
B|-----0---------3----0~--|
G|-----0---------4----0~--|
D|-----2------4--4----2~--|
A|--2--2------2--2----2~--|
E|--0--0--------------0~--|

----------------------------------------------|
VERSE 1
E|--0----------|--5----2--|
B|--0----------|--5----0--|
G|--0----------|--5----2--|  2X
D|--2----------|--5----0--|
A|-------------|----------|
E|-------------|--7-------|

----------------------------------------------|
PRE-CHORUS
E|-------------------------------------------|
B|-------------------------------------------|
G|-------------------------------------------|
D|-------------------------------------------|
A|--2--2--2---2--2--2----2--2--2----2--2--2--|
E|-------------------------------------------|

E|-------------------------------------------|
B|-------------------------------------------|
G|-------------------------------------------|
D|-------------------------------------------|
A|--2--2--2---2--2--2----2--2--2----2--0~----|
E|-------------------------------------------|

E|-------------------------------------------|
B|-------------------------------------------|
G|-------------------------------------------| 2X
D|-------------------------------------------|
A|--2--2--2---2--2--2----2--2--2----2--2--2--|
E|-------------------------------------------|


E|------------------|
B|------------------|
G|------------------| 8X
D|------------------|
A|------------------|
E|--3*--3*--3*--3*--|
         A.H.
----------------------------------------------|
CHORUS 2
E|--------------|
B|--------------|
G|--6--6--6--6--| 4X
D|--6--6--6--6--|
A|--4--4--4--4--|
E|--------------|

E|--------------------------------------|
B|--------------------------------------|
G|--------------------------------------|
D|--------7--7--4--4--4--4--4--4--4--4--|
A|--------5--5--0--0--2--2--2--2--2--2--|
E|--2--0--------------------------------|

E|--------------|
B|--------------|
G|--------------| 4X
D|--4--4--4--4--|
A|--4--4--4--4--|
E|--2--2--2--2--|

E|--------------|
B|--------------|
G|--6--6--6--6--| 4X
D|--6--6--6--6--|
A|--4--4--4--4--|
E|--------------|

E|-----0---------2----0--|
B|-----0---------3----0--|
G|-----0---------4----0--|
D|-----2------4--4----2--|
A|--2--2------2--2----2--|
E|--0--0--------------0--|

-------------------------------------------------|
VERSE 2
E|--0----------|--5----2--|
B|--0----------|--5----0--|
G|--0----------|--5----2--|
D|--2----------|--5----0--|
A|-------------|----------|
E|-------------|--7-------|

-------------------------------------------------|
BRIDGE
   Bm           G            Em           Bm
E|-------------|------------|------------|-------------|
B|-------------|------------|------------|-------------|
G|--4--4--4--4-|-4--4--4--4-|-9--9--9--9-|-4--4--4--4--|
D|--4--4--4--4-|-5--5--5--5-|-9--9--9--9-|-4--4--4--4--|
A|-------------|------------|------------|-------------|
E|-------------|------------|------------|-------------|

--------------------------------------------------|
PRE-CHORUS
E|-------------------------------------------|
B|-------------------------------------------|
G|-------------------------------------------|
D|-------------------------------------------|
A|--2--2--2---2--2--2----2--2--2----2--2--2--|
E|-------------------------------------------|

E|-------------------------------------------|
B|-------------------------------------------|
G|-------------------------------------------|
D|-------------------------------------------|
A|--2--2--2---2--2--2----2--2--2----2--0-----|
E|-------------------------------------------|

E|-------------------------------------------|
B|-------------------------------------------|
G|-------------------------------------------|
D|-------------------------------------------|
A|--2--2--2---2--2--2----2--2--2----2--2--2--|
E|-------------------------------------------|

E|------------------|
B|------------------|
G|------------------| 4X
D|------------------|
A|------------------|
E|--3*--3*--3*--3*--|
         A.H.

---------------------------------------------------|
CHORUS 3
E|--------------|
B|--------------|
G|--6--6--6--6--| 4X
D|--6--6--6--6--|
A|--4--4--4--4--|
E|--------------|

E|-----------------------------------|
B|-----------------------------------|
G|-----------------------------------|
D|--------7--7--4--4--4--4--4--------|
A|--------5--5--0--0--2--2--2--7b~---|
E|--2--0-----------------------------|

E|--------------|
B|--------------|
G|--------------| 4X
D|--4--4--4--4--|
A|--4--4--4--4--|
E|--2--2--2--2--|

E|--------------|
B|--------------|
G|--6--6--6--6--| 4X
D|--6--6--6--6--|
A|--4--4--4--4--|
E|--------------|

E|--------------------------------------|
B|--------------------------------------|
G|--------------------------------------|
D|--------7--7--4--4--4--4--4--4--4--4--|
A|--------5--5--0--0--2--2--2--2--2--2--|
E|--2--0--------------------------------|

----------------------------------------------------------|
BRIDGE/OUTRO
E|--------------|--------------|--------------|
B|--------------|--------------|--------------|
G|--4--4--4--4--|--------------|--------------|
D|--4--4--4--4--|--5--5--5--5--|--2--2--2--2--|
A|--2--2--2--2--|--5--5--5--5--|--2--2--2--2--|
E|--------------|--3--3--3--3--|--0--0--0--0--|

E|---------------------0-------2-----------|
B|---------------------0-------3-----------|
G|-----0-------4-------0-------4-----------|
D|-----2----4--4-------2----4--4----2---2--|
A|--2--2----2--2----2--2----2--2----2---2--|
E|--0--0------------0--0------------0---0--|
Добавлено: 04.12.2015
Вам также может быть интересно:
Другие материалы по этой песне:
  • Аккорды и текст

Страница создана 04.12.2015
http://primanota.ru/john-coffey/broke-neck-chords.htm
Привет, Гость.
Предлагаем пройти революционный курс по гитаре.
Подарок от PrimaNota.Ru, забирай!