PrimaNota.ru - самый крупный в мире бесплатный архив песенных текстов, аккордов, табулатур и нот


John Cale - Dancing Undercover - таба, видео

Регистрация Запомнить меня
Войти через:  Facebook Google Twitter Vk Yandex Mail.ru

John Cale - Dancing Undercover - таба, видео

Печатать
Просмотров: 126
Уроки эстрадного вокала в Санкт-Петербурге
22:01 13/12/2000

Dancing undercover - John Cale

I saw John performing in September 2000 at Leffingeleuren(Belgium). A friend
of mine recorded the show on minidisc. After listening to this song, I could
figure out the general riffs for the song. I don't have the text, but if you
know the song, you shouldn't have any problems with the lyrics I hope.

Intro and Verses:

   D#  Mute       G# Mute         D#  Mute       G#  Mute
e|----------------------------------------------------------------------|
B|----------------------------------------------------------------------|
G|--8--x-x-x-x-x--5--x-x-x-x-x-----8--x-x-x-x-x--5--x-x-x-x-x-----------|
D|--8--x-x-x-x-x--6--x-x-x-x-x-----8--x-x-x-x-x--6--x-x-x-x-x-----------|
A|--6--x-x-x-x-x--6--x-x-x-x-x-----6--x-x-x-x-x--6--x-x-x-x-x-----------|
E|--6--x-x-x-x-x--4--x-x-x-x-x-----6--x-x-x-x-x--4--x-x-x-x-x-----------|

Repeat tab troughout the verse.
Jump into the chorus with an F (barr?) chord:

e|--1-1-1-1-1-1---/--|
B|--1-1-1-1-1-1---/--|
G|--2-2-2-2-2-2---/--|
D|--3-3-3-3-3-3---/--|
A|--3-3-3-3-3-3---/--|
E|--1-1-1-1-1-1---/--|

Chorus:

    A#        G#        D#
e|-------------------------------------------------------|
B|------------------5------------------------------------|
G|--------7----(x)--5-5--(x)--8-8--(x)-(x)---------------|
D|--------8-8--(x)--6-6--(x)--8-8--(x)-(x)---------------|
A|--------8-8--(x)--6-6--(x)--6-6--(x)-(x)---------------|
E|--------6-6--(x)--4-4--(x)--6-6--(x)-(x)---------------|

   You're dancing   under_____cover
          dancing   dancing   dancing   [This are some of the lyrics I guess he sang]

Repeat tab troughout the chorus.

The song ends live with the D# chord.

I hope you get the basic structure of the song by this tab.
Comments or corrections ? Mail Me.

#-------------------------------------------------------------------------------#
# She said, You're strange, but don't change, and I let her.      - Neil Young  #
#-------------------------------------------------------------------------------#
Добавлено: 24.05.2012
Другие материалы по этой песне:
  • Аккорды и текст

Страница создана 24.05.2012
http://primanota.ru/john-cale/dancing-undercover-chords.htm
Привет, Гость.
Предлагаем пройти революционный курс по гитаре.
Подарок от PrimaNota.Ru, забирай!