PrimaNota.ru - самый крупный в мире бесплатный архив песенных текстов, аккордов, табулатур и нот


John Butler Trio - Wings Are Wide - таба, видео

Регистрация Запомнить меня
Войти через:  Facebook Google Twitter Vk Yandex Mail.ru

John Butler Trio - Wings Are Wide - таба, видео

Печатать
Просмотров: 97
Авторы музыки: John Butler
Авторы текста: John Butler
-------------------------------------------------------------------------------
                             Wings are Wide - The John Butler Trio
-------------------------------------------------------------------------------

Tabbed by:Chocoflaps
E-mail:chocoflaps@hotmail.com

Tuning: DADF#AD (Open D)

CAPO 7th Fret

 Intro

D |-----------0---------------------0-------------------|
B |----4----------0-----0----4-------0-------------0----|
F#|------0----------0----------0---------------------0--|
D |---------0---------0----------0---------0h2h4p2------|
A |--2----------0----------2------------0---------------|
D |-----------------------------------------------------|

D |-----------0---------------------0---------0-0-------|
B |----4----------0-----0----4-------0-----0h4-4-0------|
F#|------0----------0----------0---0--------------------|
D |---------0---------0----------0----------------------|
A |--2----------0----------2------------0---------------|
D |-----------------------------------------------------|

Verse 1

D |-----------0---------------------0-----------|
B |----4----------0-----0----4----------0-----0-|
F#|------0----------0----------0----------0-----|
D |---------0---------0-----------0---------0---|
A |--2----------0----------2----------0---------|
D |---------------------------------------------|

D |-----------0---------------------0-----------|
B |----4----------0-----0----4----------0-----0-|
F#|------0----------0----------0----------0-----|
D |---------0---------0-----------0---------0---|
A |--2----------0----------2----------0---------|
D |---------------------------------------------|

D |-----------0---------------------0-----------|
B |----4----------0-----0----4----------0-----0-|
F#|------0----------0----------0----------0-----|
D |---------0---------0-----------0---------0---|
A |--2----------0----------2----------0---------|
D |---------------------------------------------|

D |-----------0---------------------0-----------|
B |----4----------0-----0----4----------0-----0-|
F#|------0----------0----------0----------0-----|
D |---------0---------0-----------0---------0---|
A |--2----------0----------2----------0---------|
D |---------------------------------------------|


************************************

| /   slide up
| \   slide down
| h   hammer-on
| p   pull-off
| ~   vibrato
| +   harmonic
| x   Mute note
| b   Bend
| pb  Pre-bend
| br  Bend release
| pbr Pre-bend release
| brb Bend release bend

************************************
Добавлено: 09.07.2015
Другие материалы по этой песне:
  • Аккорды и текст

Страница создана 09.07.2015
http://primanota.ru/john-butler-trio/wings-are-wide-chords.htm
Привет, Гость.
Предлагаем пройти революционный курс по гитаре.
Подарок от PrimaNota.Ru, забирай!