PrimaNota.ru - самый крупный в мире бесплатный архив песенных текстов, аккордов, табулатур и нот


John Butler Trio - Steal It - таба, видео

Регистрация Запомнить меня
Войти через:  Facebook Google Twitter Vk Yandex Mail.ru

John Butler Trio - Steal It - таба, видео

Печатать
Просмотров: 144
Авторы музыки: John Butler
Авторы текста: John Butler
-------------------------------------------------------------------------------
                             STEAL IT - John Butler Trio
-------------------------------------------------------------------------------
Tabbed by: Tasty Torge
Email: torge.santjer@gmail.com

Tuning: Standard

Intro

e|---------------------------------------------------------------------------|
B|---------------------------------------------------------------------------|
G|---------------------------------------------------------------------------|
D|--------------------7-5--4-2---------------------5-4--0-2------------------|
A|-----3-2--0-2-3/5-----------------3-2--0-2-3/5-----------------------------|
E|--3-----------------------------3------------------------------------------|

e|---------------------------------------------------------------------------|
B|---------------------------------------------------------------------------|
G|---------------------------------------------------------------------------|
D|---------------------7-5--4-2----------------------------------------------|
A|-----2--0--2-3/5--------------------2--0--2-3/5--5-3-2-0--2-0--------------|
E|--3------------------------------3-----------------------------------------|


Verse (palm muting)

        G          D          A          C
e|---------------------------------------------------------------------------|
B|---------------------------------------------------------------------------|
G|-----------------7----------------------5----------------------------------|
D|------5-0------7---0--------7-0-------5---0--------------------------------| 8x
A|----5--------5------------7--------3---------------------------------------|
E|--3---------------------5--------------------------------------------------|

Chorus (it's hard to hear what john exactly plays) [G D A C]

e|---------------------------------------------------------------------------|
B|--5~~~------------------5~~~---------------3-------------------------------|
G|--------4--4--4/5p4-----------4--4--4/5p4----------------------------------|
D|---------------------------------------------------------------------------|2x
A|---------------------------------------------------------------------------|
E|---------------------------------------------------------------------------|

e|---------------------------------------------------------------------------|
B|--3--1--0---0-1-0---0-1-0---1-0--------------------------------------------|
G|------------------2-------2------------------------------------------------|
D|---------------------------------------------------------------------------|
A|---------------------------------------------------------------------------|
E|---------------------------------------------------------------------------|

Verse (palm muting)

        G          D          A          C
e|---------------------------------------------------------------------------|
B|---------------------------------------------------------------------------|
G|-----------------7----------------------5----------------------------------|
D|------5-0------7---0--------7-0-------5---0--------------------------------| 8x
A|----5--------5------------7--------3---------------------------------------|
E|--3---------------------5--------------------------------------------------|

Bridge

    Em       G       D       A
e|--0-0---3-3-3-3---2-2---0-0-0-0--------------------------------------------|
B|--0-0---0-0-0-0---3-3---2-2-2-2--------------------------------------------|
G|--0-0---0-0-0-0---2-2---2-2-2-2--------------------------------------------|
D|--2-2---0-0-0-0---0-0---2-2-2-2--------------------------------------------| 3x
A|--2-2---2-2-2-2---0-0---0-0-0-0--------------------------------------------|
E|--0-0---3-3-3-3---x-x---x-x-x-x--------------------------------------------|

    Em       G      C   D
e|--0-0---3-3-3-3---0---x----------------------------------------------------|
B|--0-0---0-0-0-0---1---3----------------------------------------------------|
G|--0-0---0-0-0-0---0---0----------------------------------------------------|
D|--2-2---0-0-0-0---2---4----------------------------------------------------| 
A|--2-2---2-2-2-2---3---5----------------------------------------------------|
E|--0-0---3-3-3-3---x---x----------------------------------------------------|

Chorus [G D A C]

e|---------------------------------------------------------------------------|
B|--5~~~------------------5~~~---------------3-------------------------------|
G|--------4--4--4/5p4-----------4--4--4/5p4----------------------------------|
D|---------------------------------------------------------------------------|8x
A|---------------------------------------------------------------------------|
E|---------------------------------------------------------------------------|

Ending Chord

    G
e|--3------------------------------------------------------------------------|
B|--0------------------------------------------------------------------------|
G|--0------------------------------------------------------------------------|
D|--0------------------------------------------------------------------------|
A|--2------------------------------------------------------------------------|
E|--3------------------------------------------------------------------------|




************************************

| /   slide up
| \   slide down
| h   hammer-on
| p   pull-off
| ~   vibrato
| +   harmonic
| x   Mute note
| b   Bend
| pb  Pre-bend
| br  Bend release
| pbr Pre-bend release
| brb Bend release bend

************************************
Добавлено: 09.07.2012
Другие материалы по этой песне:
  • Аккорды и текст

Страница создана 09.07.2012
http://primanota.ru/john-butler-trio/steal-it-chords.htm
Привет, Гость.
Предлагаем пройти революционный курс по гитаре.
Подарок от PrimaNota.Ru, забирай!