PrimaNota.ru - самый крупный в мире бесплатный архив песенных текстов, аккордов, табулатур и нот


John Butler Trio - Devil Woman - бас-таба, видео

Регистрация Запомнить меня
Войти через:  Facebook Google Twitter Vk Yandex Mail.ru

John Butler Trio - Devil Woman - бас-таба, видео

Печатать
Просмотров: 72
Авторы музыки: Byron Luiters, John Butler, Nicky Bomba
Авторы текста: John Butler
-------------------------------------------------------------------------------
                             Devil Woman - John Butler
-------------------------------------------------------------------------------
Tabbed by: Landon Cowart
E-mail: lancow@yahoo.com

Tuning: Standard

 Intro
  Come in at :14
G|------|-----------|---------||
D|------|-----------|---------||
A|----7-|-7-7\------|---------||
E|------|-----------|--0------||
                   X5

  Chorus :38
G|---9---------9------|---9---------9------|--------7------|--------------||
D|-----9-97------9-99-|-----9--7------9-7--|---4-7----7--4-|-7------5-----||
A|-7---------7--------|-7---------7------9-|-5-------------|---5-7----7-9-||
E|--------------------|--------------------|---------------|--------------||
                                                                           X2

                                                            1st and 2nd ending
   Verse :57                                                  /           \  3rd ending
G|---9--------9------|---9--------9------|---9--------9------|---9---------|----------||
D|-----9-7------9-79-|-----9-7------9-79-|-----9-7------9-79-|-----9-99875-|----------||
A|-7--------7--------|-7--------7--------|-7--------7--------|-7-----------|----------||
E|-------------------|-------------------|-------------------|-------------|----0-----||
                                                                                     X3
 Chorus again 1:25 


  1:43
G|----------|----------|----------|------||
D|----------|----------|----------|------||
A|-7p5---5--|-2p0---0--|-2p0------|------||
E|-----7----|-----3----|-----3-0--|------||

   Verse 2 1:53                                               1st and 3rd    2nd ending
                                                                ending
G|---9--------9------|---9--------9------|---9--------9------|---9---------|-----------||
D|-----9-7------9-79-|-----9-7------9-79-|-----9-7------9-79-|-----9-99875-|-9875------||
A|-7--------7--------|-7--------7--------|-7--------7--------|-7-----------|------7532-||
E|-------------------|-------------------|-------------------|-------------|-----------||

  2:21
G|------|-------|-------|-------|-------|-------|-----------|---------|
D|------|-------|-------|-------|-------|-------|-----------|---------|
A|------|-------|-------|-------|-------|-------|-----------|---------|
E|-0---0|-0----0|-0----0|-0----0|-0----0|-0----0|-10--101010|777777777|
                                                *Ten not 1 0
  Chorus again 2:40

 Enjoy! Bad ass song!!!


| /  slide up
| \  slide down
| h  hammer-on
| p  pull-off
| ~  vibrato
| +  harmonic
| x  Mute note
===============================================================================
Добавлено: 09.07.2015
Другие материалы по этой песне:
  • Аккорды и текст

Страница создана 09.07.2015
http://primanota.ru/john-butler-trio/devil-woman-chords.htm
Привет, Гость.
Предлагаем пройти революционный курс по гитаре.
Подарок от PrimaNota.Ru, забирай!