PrimaNota.ru - самый крупный в мире бесплатный архив песенных текстов, аккордов, табулатур и нот


John Butler Trio - Close To You - таба, бас-таба, видео

Регистрация Запомнить меня
Войти через:  Facebook Google Twitter Vk Yandex Mail.ru

John Butler Trio - Close To You - таба, бас-таба, видео

Печатать
Просмотров: 175
Уроки эстрадного вокала в Санкт-Петербурге
Авторы музыки: John Butler
Авторы текста: John Butler
Close to you - john butler trio
tabbed by Matt Olm STANDARD TUNING :)

Intro/verse/chorus
E|-------------------------------------------------------------------------|
B|-------------------------------------------------------------------------|
G|--2----------------------------------------------------------------------|
D|--2----------------------------------------------------------------------|
A|--0--2-3--2-0--0-2-5-7-5-------------------------------------------------|
E|----------------3--------------------------------------------------------|
Pre Chorus part 1 (Listen for timing on playing chords)
E|-------------------------------------------------------------------------|
B|-------------------------------------------------------------------------|
G|-------------------------------------------------------------------------|
D|--3-------5--------7----------5------------------------------------------|
A|--3-------5--------7---------5-------------------------------------------|
E|--1-------3-------5---------3--------------------------------------------|
pre chorus part 2 ( where he says i wanna be close to you)
E|-------------------------------------------------------------------------|
B|-------------------------------------------------------------------------|
G|-------------------------------------------------------------------------|
D|--3-------5-------3------5-----------------------------------------------|
A|--3-------5-------3------5-----------------------------------------------|
E|--1-------3-------1------3-----------------------------------------------|
Chorus (main riff)
E|-------------------------------------------------------------------------|
B|-------------------------------------------------------------------------|
G|--2----------------------------------------------------------------------|
D|--2----------------------------------------------------------------------|
A|--0--2-3--2-0--0-2-5-7-5-------------------------------------------------|
E|----------------3--------------------------------------------------------|

verse 2
E|-------------------------------------------------------------------------|
B|-------------------------------------------------------------------------|
G|--2----------------------------------------------------------------------|
D|--2----------------------------------------------------------------------|
A|--0--2-3--2-0--0-2-5-7-5-------------------------------------------------|
E|----------------3--------------------------------------------------------|
pre chorus 2 part 1
listen for timing once again
E|-----------------------------------------------------------------------------|
B|-----------------------------------------------------------------------------|
G|-----------------------------------------------------------------------------|
D|---7--5--3--5----------------------------------------------------------------|
A|---7--5--3--5----------------------------------------------------------------|
E|---5--3--1--3----------------------------------------------------------------|
prechorus 2 part 2
E|----------------------------------------------------------------------------|
B|----------------------------------------------------------------------------|
G|----------------------------------------------------------------------------|
D|--7-5-3-5-------------------------------------------------------------------|
A|--7-5-3-5-------------------------------------------------------------------|
E|--5-3-1-3-------------------------------------------------------------------|

chorus
E|-------------------------------------------------------------------------|
B|-------------------------------------------------------------------------|
G|--2----------------------------------------------------------------------|
D|--2----------------------------------------------------------------------|
A|--0--2-3--2-0--0-2-5-7-5-------------------------------------------------|
E|----------------3--------------------------------------------------------|
solo ( with wah)

E|--------------------------------------------------------------------------|
B|--------------------------------------------------------------------------|
G|----------------------------5-7S9S7-5-7S9S7-5-7S9S7-5~--------------------|
D|---5-7-7~~7~~7~~7~~7------------------------------------------------------|
A|-7------------------------------------------------------------------------|
E|--------------------------------------------------------------------------|

E|----------------------------15--------------------------------------|
B|-------------13-12----12-13----13-12---12---------------------------|
G|-12-14-14-14-------14----------------14-----------------------------|
D|--------------------------------------------------------------------|
A|--------------------------------------------------------------------|
E|--------------------------------------------------------------------|

E|--15--15--15--15--15--15--15--15--------------------------------|
B|--15b-15b-15b-15b-15b-15b-15b-15b-15-13-------------------------|
G|----------------------------------------14~~~14s17s12s14--------|
D|----------------------------------------------------------------|
A|----------------------------------------------------------------|
E|----------------------------------------------------------------|
chorus/outro
E|-------------------------------------------------------------------------|
B|-------------------------------------------------------------------------|
G|--2----------------------------------------------------------------------|
D|--2----------------------------------------------------------------------|
A|--0--2-3--2-0--0-2-5-7-5-------------------------------------------------|
E|----------------3--------------------------------------------------------|
play this bit on the last bar of the outro
E|-------------------------------------------------------------------------|
B|-------------------------------------------------------------------------|
G|--2----------------------------------------------------------------------|
D|--2----------------------------------------------------------------------|
A|--0--2-3--2-0--0-2-5~~~~~~~----------------------------------------------|
E|----------------3--------------------------------------------------------|
enjoy it :) solos not perfect but its partly correct :)
Добавлено: 10.03.2012
Другие материалы по этой песне:

Страница создана 10.03.2012
http://primanota.ru/john-butler-trio/close-to-you-chords.htm
Привет, Гость.
Предлагаем пройти революционный курс по гитаре.
Подарок от PrimaNota.Ru, забирай!