PrimaNota.ru - самый крупный в мире бесплатный архив песенных текстов, аккордов, табулатур и нот


John Barry - Thunderball - бас-таба, видео

Регистрация Запомнить меня
Войти через:  Facebook Google Twitter Vk Yandex Mail.ru

John Barry - Thunderball - бас-таба, видео

Печатать
Просмотров: 96


John Barry - Thunderball
performed by Tom Jones

all 4/4

Intro (0:00 - 0:11)
               [2x]
G|----------------|
D|8--8------------|
A|----8---6--8----|
E|----------------|


Verse 1 (0:11 - 0:52)
G|----------------|----------------|----------------|----------------|----------------|----------------|----------------|----------------|
D|8--8------------|8--8----8--8----|9--9------------|8--8----8--8----|----------------|----8---9---8---|----------------|----------------|
A|----8---6--6----|----8-------8---|----9---8--8----|----8-------8---|6--6----8--8----|8-------------8-|6--6--------8---|8--8----8--8----|
E|------------6---|----------------|------------8---|----------------|----6-------8---|--10--10--10----|----6---8--8----|----8-------8---|
  He always runs while others walk...                                                              ...so he strikes like thunderball

Verse 2 (0:52 - 1:32)
G|----------------|----------------|----------------|----------------|----------------|----------------|----------------|----------------|
D|8--8------------|8--8----8--8----|9--9------------|8--8----8--8----|----------------|----8---9---8---|----------------|8--8----8--8----|
A|----8---6--6----|----8-------8---|----9---8--8----|----8-------8---|6--6----8--8----|8-------------8-|6--6----8--8----|----8-------8---|
E|------------6---|----------------|------------8---|----------------|----6-------8---|--10--10--10----|----6-------8---|----------------|
  He knows the meaning of success...                                                              ...and he strikes like thunderball

Bridge (1:32 - 1:52)
G|----------------|----------------|----------------|----------------|
D|--------6--6----|8--8------------|6--6------------|8--8------------|
A|6--6--------6---|----8---9--96---|----6---8--8----|----8---6--68---|
E|----6-----------|----------------|------------8---|----------------|
  Any woman he wants he'll get...

Verse 3 (like Verse 2) (1:52 - 2:24)
  His days of asking are all gone...

Outro (2:24 - 3:01)
             [5x]
G|---------------||----------------|----------------|
D|8--8-----------||8---------------|----------------|
A|----8---6--8---||----------------|----------------|
E|---------------||----------------|---------6------|

Добавлено: 20.10.2013
Вам также может быть интересно:
Другие материалы по этой песне:
  • Аккорды и текст

Страница создана 20.10.2013
http://primanota.ru/john-barry/thunderball-chords.htm
Привет, Гость.
Предлагаем пройти революционный курс по гитаре.
Подарок от PrimaNota.Ru, забирай!